  0
SECTION
  2
HEADER
  9
$ACADVER
  1
AC1015
  9
$ACADMAINTVER
 70
     6
  9
$DWGCODEPAGE
  3
ANSI_1254
  9
$INSBASE
 10
0.0
 20
0.0
 30
0.0
  9
$EXTMIN
 10
0.0
 20
0.0
 30
0.0
  9
$EXTMAX
 10
279.4
 20
215.9
 30
0.0
  9
$LIMMIN
 10
0.0
 20
0.0
  9
$LIMMAX
 10
279.4
 20
215.9
  9
$ORTHOMODE
 70
     0
  9
$REGENMODE
 70
     1
  9
$FILLMODE
 70
     1
  9
$QTEXTMODE
 70
     0
  9
$MIRRTEXT
 70
     1
  9
$LTSCALE
 40
1.0
  9
$ATTMODE
 70
     1
  9
$TEXTSIZE
 40
3.5
  9
$TRACEWID
 40
1.0
  9
$TEXTSTYLE
  7
Standard
  9
$CLAYER
  8
0
  9
$CELTYPE
  6
ByLayer
  9
$CECOLOR
 62
   256
  9
$CELTSCALE
 40
1.0
  9
$DISPSILH
 70
     0
  9
$DIMSCALE
 40
1.0
  9
$DIMASZ
 40
3.5
  9
$DIMEXO
 40
1.0
  9
$DIMDLI
 40
3.75
  9
$DIMRND
 40
0.0
  9
$DIMDLE
 40
0.0
  9
$DIMEXE
 40
1.0
  9
$DIMTP
 40
0.0
  9
$DIMTM
 40
0.0
  9
$DIMTXT
 40
3.5
  9
$DIMCEN
 40
2.5
  9
$DIMTSZ
 40
0.0
  9
$DIMTOL
 70
     0
  9
$DIMLIM
 70
     0
  9
$DIMTIH
 70
     1
  9
$DIMTOH
 70
     1
  9
$DIMSE1
 70
     0
  9
$DIMSE2
 70
     0
  9
$DIMTAD
 70
     1
  9
$DIMZIN
 70
     0
  9
$DIMBLK
  1

  9
$DIMASO
 70
     1
  9
$DIMSHO
 70
     1
  9
$DIMPOST
  1

  9
$DIMAPOST
  1

  9
$DIMALT
 70
     0
  9
$DIMALTD
 70
     3
  9
$DIMALTF
 40
0.0393700787
  9
$DIMLFAC
 40
1.0
  9
$DIMTOFL
 70
     1
  9
$DIMTVP
 40
0.0
  9
$DIMTIX
 70
     0
  9
$DIMSOXD
 70
     0
  9
$DIMSAH
 70
     0
  9
$DIMBLK1
  1

  9
$DIMBLK2
  1

  9
$DIMSTYLE
  2
ISO-25
  9
$DIMCLRD
 70
     0
  9
$DIMCLRE
 70
     0
  9
$DIMCLRT
 70
     0
  9
$DIMTFAC
 40
1.0
  9
$DIMGAP
 40
1.524
  9
$DIMJUST
 70
     0
  9
$DIMSD1
 70
     0
  9
$DIMSD2
 70
     0
  9
$DIMTOLJ
 70
     0
  9
$DIMTZIN
 70
     0
  9
$DIMALTZ
 70
     0
  9
$DIMALTTZ
 70
     0
  9
$DIMUPT
 70
     0
  9
$DIMDEC
 70
     2
  9
$DIMTDEC
 70
     2
  9
$DIMALTU
 70
     2
  9
$DIMALTTD
 70
     3
  9
$DIMTXSTY
  7
Standard
  9
$DIMAUNIT
 70
     0
  9
$DIMADEC
 70
     2
  9
$DIMALTRND
 40
0.0
  9
$DIMAZIN
 70
     0
  9
$DIMDSEP
 70
    44
  9
$DIMATFIT
 70
     3
  9
$DIMFRAC
 70
     0
  9
$DIMLDRBLK
  1

  9
$DIMLUNIT
 70
     2
  9
$DIMLWD
 70
    -2
  9
$DIMLWE
 70
    -2
  9
$DIMTMOVE
 70
     0
  9
$LUNITS
 70
     2
  9
$LUPREC
 70
     2
  9
$SKETCHINC
 40
1.0
  9
$FILLETRAD
 40
10.0
  9
$AUNITS
 70
     0
  9
$AUPREC
 70
     2
  9
$MENU
  1
.
  9
$ELEVATION
 40
0.0
  9
$PELEVATION
 40
0.0
  9
$THICKNESS
 40
0.0
  9
$LIMCHECK
 70
     0
  9
$CHAMFERA
 40
0.0
  9
$CHAMFERB
 40
0.0
  9
$CHAMFERC
 40
0.0
  9
$CHAMFERD
 40
0.0
  9
$SKPOLY
 70
     0
  9
$TDCREATE
 40
2459741.604572291
  9
$TDUCREATE
 40
2459741.479572291
  9
$TDUPDATE
 40
2459741.604572477
  9
$TDUUPDATE
 40
2459741.479572477
  9
$TDINDWG
 40
0.0000000116
  9
$TDUSRTIMER
 40
0.0000000116
  9
$USRTIMER
 70
     1
  9
$ANGBASE
 50
0.0
  9
$ANGDIR
 70
     0
  9
$PDMODE
 70
     0
  9
$PDSIZE
 40
-1.0
  9
$PLINEWID
 40
0.0
  9
$SPLFRAME
 70
     0
  9
$SPLINETYPE
 70
     6
  9
$SPLINESEGS
 70
     8
  9
$HANDSEED
  5
121
  9
$SURFTAB1
 70
     6
  9
$SURFTAB2
 70
     6
  9
$SURFTYPE
 70
     6
  9
$SURFU
 70
     6
  9
$SURFV
 70
     6
  9
$UCSBASE
  2

  9
$UCSNAME
  2

  9
$UCSORG
 10
0.0
 20
0.0
 30
0.0
  9
$UCSXDIR
 10
1.0
 20
0.0
 30
0.0
  9
$UCSYDIR
 10
0.0
 20
1.0
 30
0.0
  9
$UCSORTHOREF
  2

  9
$UCSORTHOVIEW
 70
     0
  9
$UCSORGTOP
 10
0.0
 20
0.0
 30
0.0
  9
$UCSORGBOTTOM
 10
0.0
 20
0.0
 30
0.0
  9
$UCSORGLEFT
 10
0.0
 20
0.0
 30
0.0
  9
$UCSORGRIGHT
 10
0.0
 20
0.0
 30
0.0
  9
$UCSORGFRONT
 10
0.0
 20
0.0
 30
0.0
  9
$UCSORGBACK
 10
0.0
 20
0.0
 30
0.0
  9
$PUCSBASE
  2

  9
$PUCSNAME
  2

  9
$PUCSORG
 10
0.0
 20
0.0
 30
0.0
  9
$PUCSXDIR
 10
1.0
 20
0.0
 30
0.0
  9
$PUCSYDIR
 10
0.0
 20
1.0
 30
0.0
  9
$PUCSORTHOREF
  2

  9
$PUCSORTHOVIEW
 70
     0
  9
$PUCSORGTOP
 10
0.0
 20
0.0
 30
0.0
  9
$PUCSORGBOTTOM
 10
0.0
 20
0.0
 30
0.0
  9
$PUCSORGLEFT
 10
0.0
 20
0.0
 30
0.0
  9
$PUCSORGRIGHT
 10
0.0
 20
0.0
 30
0.0
  9
$PUCSORGFRONT
 10
0.0
 20
0.0
 30
0.0
  9
$PUCSORGBACK
 10
0.0
 20
0.0
 30
0.0
  9
$USERI1
 70
     0
  9
$USERI2
 70
     0
  9
$USERI3
 70
     0
  9
$USERI4
 70
     0
  9
$USERI5
 70
     0
  9
$USERR1
 40
0.0
  9
$USERR2
 40
0.0
  9
$USERR3
 40
0.0
  9
$USERR4
 40
0.0
  9
$USERR5
 40
0.0
  9
$WORLDVIEW
 70
     1
  9
$SHADEDGE
 70
     3
  9
$SHADEDIF
 70
    70
  9
$TILEMODE
 70
     1
  9
$MAXACTVP
 70
    64
  9
$PINSBASE
 10
0.0
 20
0.0
 30
0.0
  9
$PLIMCHECK
 70
     0
  9
$PEXTMIN
 10
1.0000000000E+20
 20
1.0000000000E+20
 30
1.0000000000E+20
  9
$PEXTMAX
 10
-1.0000000000E+20
 20
-1.0000000000E+20
 30
-1.0000000000E+20
  9
$PLIMMIN
 10
0.0
 20
0.0
  9
$PLIMMAX
 10
420.0
 20
297.0
  9
$UNITMODE
 70
     0
  9
$VISRETAIN
 70
     1
  9
$PLINEGEN
 70
     0
  9
$PSLTSCALE
 70
     1
  9
$TREEDEPTH
 70
  3020
  9
$CMLSTYLE
  2
Standard
  9
$CMLJUST
 70
     0
  9
$CMLSCALE
 40
20.0
  9
$PROXYGRAPHICS
 70
     1
  9
$MEASUREMENT
 70
     1
  9
$CELWEIGHT
370
    -1
  9
$ENDCAPS
280
     0
  9
$JOINSTYLE
280
     0
  9
$LWDISPLAY
290
     1
  9
$INSUNITS
 70
     4
  9
$HYPERLINKBASE
  1

  9
$STYLESHEET
  1

  9
$XEDIT
290
     1
  9
$CEPSNTYPE
380
     0
  9
$PSTYLEMODE
290
     1
  9
$FINGERPRINTGUID
  2
{14b00452-cdd7-490d-9aca-3a553bae407e}
  9
$VERSIONGUID
  2
{FAEB1C32-E019-11D5-929B-00C0DF256EC4}
  9
$EXTNAMES
290
     1
  9
$PSVPSCALE
 40
0.0
  9
$OLESTARTUP
290
     0
  0
ENDSEC
  0
SECTION
  2
CLASSES
  0
CLASS
  1
ACDBDICTIONARYWDFLT
  2
AcDbDictionaryWithDefault
  3
ObjectDBX Classes
 90
        0
280
     0
281
     0
  0
CLASS
  1
VISUALSTYLE
  2
AcDbVisualStyle
  3
ObjectDBX Classes
 90
     4095
280
     0
281
     0
  0
CLASS
  1
MATERIAL
  2
AcDbMaterial
  3
ObjectDBX Classes
 90
     1153
280
     0
281
     0
  0
CLASS
  1
SCALE
  2
AcDbScale
  3
ObjectDBX Classes
 90
     1153
280
     0
281
     0
  0
CLASS
  1
TABLESTYLE
  2
AcDbTableStyle
  3
ObjectDBX Classes
 90
     4095
280
     0
281
     0
  0
CLASS
  1
MLEADERSTYLE
  2
AcDbMLeaderStyle
  3
ACDB_MLEADERSTYLE_CLASS
 90
     4095
280
     0
281
     0
  0
CLASS
  1
SUN
  2
AcDbSun
  3
SCENEOE
 90
     1153
280
     0
281
     0
  0
CLASS
  1
ACDBPLACEHOLDER
  2
AcDbPlaceHolder
  3
ObjectDBX Classes
 90
        0
280
     0
281
     0
  0
CLASS
  1
LAYOUT
  2
AcDbLayout
  3
ObjectDBX Classes
 90
        0
280
     0
281
     0
  0
ENDSEC
  0
SECTION
  2
TABLES
  0
TABLE
  2
VPORT
  5
8
330
0
100
AcDbSymbolTable
 70
     1
  0
VPORT
  5
29
330
8
100
AcDbSymbolTableRecord
100
AcDbViewportTableRecord
  2
*Active
 70
     0
 10
0.0
 20
0.0
 11
1.0
 21
1.0
 12
139.7
 22
107.95
 13
0.0
 23
0.0
 14
10.0
 24
10.0
 15
10.0
 25
10.0
 16
0.0
 26
0.0
 36
1.0
 17
0.0
 27
0.0
 37
0.0
 40
215.9
 41
1.2941176471
 42
50.0
 43
0.0
 44
0.0
 50
0.0
 51
0.0
 71
     0
 72
  2000
 73
     1
 74
     3
 75
     0
 76
     0
 77
     0
 78
     0
281
     0
 65
     1
110
0.0
120
0.0
130
0.0
111
1.0
121
0.0
131
0.0
112
0.0
122
1.0
132
0.0
 79
     0
146
0.0
  0
ENDTAB
  0
TABLE
  2
LTYPE
  5
5
330
0
100
AcDbSymbolTable
 70
     6
  0
LTYPE
  5
14
330
5
100
AcDbSymbolTableRecord
100
AcDbLinetypeTableRecord
  2
ByBlock
 70
     0
  3

 72
    65
 73
     0
 40
0.0
  0
LTYPE
  5
15
330
5
100
AcDbSymbolTableRecord
100
AcDbLinetypeTableRecord
  2
ByLayer
 70
     0
  3

 72
    65
 73
     0
 40
0.0
  0
LTYPE
  5
16
330
5
100
AcDbSymbolTableRecord
100
AcDbLinetypeTableRecord
  2
Continuous
 70
     0
  3
Solid line
 72
    65
 73
     0
 40
0.0
  0
LTYPE
  5
6E
330
5
100
AcDbSymbolTableRecord
100
AcDbLinetypeTableRecord
  2
HIDDEN
 70
     0
  3
Hidden __ __ __ __ __ __ __ __ __ __ __ __ __ __
 72
    65
 73
     2
 40
1.905
 49
1.27
 74
     0
 49
-0.635
 74
     0
  0
LTYPE
  5
6F
330
5
100
AcDbSymbolTableRecord
100
AcDbLinetypeTableRecord
  2
PHANTOM
 70
     0
  3
Phantom ______  __  __  ______  __  __  ______
 72
    65
 73
     6
 40
12.7
 49
6.35
 74
     0
 49
-1.27
 74
     0
 49
1.27
 74
     0
 49
-1.27
 74
     0
 49
1.27
 74
     0
 49
-1.27
 74
     0
  0
LTYPE
  5
70
330
5
100
AcDbSymbolTableRecord
100
AcDbLinetypeTableRecord
  2
CENTER
 70
     0
  3
Center ____ _ ____ _ ____ _ ____ _ ____ _ ____
 72
    65
 73
     4
 40
10.16
 49
6.35
 74
     0
 49
-1.27
 74
     0
 49
1.27
 74
     0
 49
-1.27
 74
     0
  0
LTYPE
  5
71
330
5
100
AcDbSymbolTableRecord
100
AcDbLinetypeTableRecord
  2
CENTERX2
 70
     0
  3
Center (2x) ________  __  ________  __  _____
 72
    65
 73
     4
 40
20.32
 49
12.7
 74
     0
 49
-2.54
 74
     0
 49
2.54
 74
     0
 49
-2.54
 74
     0
  0
LTYPE
  5
72
330
5
100
AcDbSymbolTableRecord
100
AcDbLinetypeTableRecord
  2
DOT2
 70
     0
  3
Dot (.5x) ........................................
 72
    65
 73
     2
 40
0.635
 49
0.0
 74
     0
 49
-0.635
 74
     0
  0
ENDTAB
  0
TABLE
  2
LAYER
  5
2
330
0
100
AcDbSymbolTable
 70
    17
  0
LAYER
  5
10
330
2
100
AcDbSymbolTableRecord
100
AcDbLayerTableRecord
  2
0
 70
     0
 62
     7
  6
Continuous
370
    -3
390
F
  0
LAYER
  5
73
330
2
100
AcDbSymbolTableRecord
100
AcDbLayerTableRecord
  2
FORMAT
 70
     0
 62
     7
  6
Continuous
370
    -3
390
F
  0
LAYER
  5
74
330
2
100
AcDbSymbolTableRecord
100
AcDbLayerTableRecord
  2
YARDIMCI_GEOMETRI
 70
     0
 62
    -6
  6
Continuous
290
     0
370
    -3
390
F
  0
LAYER
  5
75
330
2
100
AcDbSymbolTableRecord
100
AcDbLayerTableRecord
  2
SAYFA_CERCEVESI
 70
     0
 62
     7
  6
Continuous
370
    25
390
F
  0
LAYER
  5
76
330
2
100
AcDbSymbolTableRecord
100
AcDbLayerTableRecord
  2
ANTET
 70
     0
 62
     7
  6
Continuous
370
    -3
390
F
  0
LAYER
  5
77
330
2
100
AcDbSymbolTableRecord
100
AcDbLayerTableRecord
  2
OLCU
 70
     0
 62
   150
  6
Continuous
370
    -3
390
F
  0
LAYER
  5
78
330
2
100
AcDbSymbolTableRecord
100
AcDbLayerTableRecord
  2
METIN
 70
     0
 62
    96
  6
Continuous
370
    -3
390
F
  0
LAYER
  5
79
330
2
100
AcDbSymbolTableRecord
100
AcDbLayerTableRecord
  2
BALON
 70
     0
 62
     5
  6
Continuous
370
    -3
390
F
  0
LAYER
  5
7A
330
2
100
AcDbSymbolTableRecord
100
AcDbLayerTableRecord
  2
VURGU
 70
     0
 62
     7
  6
Continuous
370
    -3
390
F
  0
LAYER
  5
7B
330
2
100
AcDbSymbolTableRecord
100
AcDbLayerTableRecord
  2
SILIK
 70
     0
 62
     7
  6
Continuous
370
    -3
390
F
  0
LAYER
  5
7C
330
2
100
AcDbSymbolTableRecord
100
AcDbLayerTableRecord
  2
MODEL
 70
     0
 62
     7
  6
Continuous
370
    -3
390
F
  0
LAYER
  5
7D
330
2
100
AcDbSymbolTableRecord
100
AcDbLayerTableRecord
  2
DETAYLANDıRMA
 70
     0
 62
   190
  6
Continuous
370
    -3
390
F
  0
LAYER
  5
7E
330
2
100
AcDbSymbolTableRecord
100
AcDbLayerTableRecord
  2
TOLERANS
 70
     0
 62
   230
  6
Continuous
370
    -3
390
F
  0
LAYER
  5
7F
330
2
100
AcDbSymbolTableRecord
100
AcDbLayerTableRecord
  2
MERKEZ_CIZGILERI
 70
     0
 62
    30
  6
Continuous
370
    -3
390
F
  0
LAYER
  5
80
330
2
100
AcDbSymbolTableRecord
100
AcDbLayerTableRecord
  2
KESIT-DETAY_CIZGILERI
 70
     0
 62
     7
  6
Continuous
370
    -3
390
F
  0
LAYER
  5
81
330
2
100
AcDbSymbolTableRecord
100
AcDbLayerTableRecord
  2
\U+041E\U+0421\U+0415\U+0412\U+042B\U+0415
 70
     0
 62
     7
  6
Continuous
370
    -3
390
F
  0
LAYER
  5
82
330
2
100
AcDbSymbolTableRecord
100
AcDbLayerTableRecord
  2
\U+0412\U+041E\U+0414\U+042F\U+041D\U+042B\U+0415_\U+0417\U+041D\U+0410\U+041A\U+0418
 70
     0
 62
    11
  6
Continuous
370
    -3
390
F
  0
ENDTAB
  0
TABLE
  2
STYLE
  5
3
330
0
100
AcDbSymbolTable
 70
     1
  0
STYLE
  5
11
330
3
100
AcDbSymbolTableRecord
100
AcDbTextStyleTableRecord
  2
Standard
 70
     0
 40
0.0
 41
1.0
 50
0.0
 71
     0
 42
3.5
  3
txt
  4

  0
ENDTAB
  0
TABLE
  2
VIEW
  5
6
330
0
100
AcDbSymbolTable
 70
     0
  0
ENDTAB
  0
TABLE
  2
UCS
  5
7
330
0
100
AcDbSymbolTable
 70
     0
  0
ENDTAB
  0
TABLE
  2
APPID
  5
9
330
0
100
AcDbSymbolTable
 70
     1
  0
APPID
  5
12
330
9
100
AcDbSymbolTableRecord
100
AcDbRegAppTableRecord
  2
ACAD
 70
     0
  0
ENDTAB
  0
TABLE
  2
DIMSTYLE
  5
A
330
0
100
AcDbSymbolTable
 70
     1
100
AcDbDimStyleTable
  0
DIMSTYLE
105
27
330
A
100
AcDbSymbolTableRecord
100
AcDbDimStyleTableRecord
  2
ISO-25
 70
     0
 41
2.5
 42
0.625
 43
3.75
 44
1.25
 73
     0
 74
     0
 77
     1
 78
     8
140
2.5
141
2.5
143
0.0393700787
147
0.625
171
     3
172
     1
178
     0
271
     2
272
     2
274
     3
278
    44
283
     0
284
     8
340
11
  0
ENDTAB
  0
TABLE
  2
BLOCK_RECORD
  5
1
330
0
100
AcDbSymbolTable
 70
     5
  0
BLOCK_RECORD
  5
1F
330
1
100
AcDbSymbolTableRecord
100
AcDbBlockTableRecord
  2
*Model_Space
340
22
  0
BLOCK_RECORD
  5
1B
330
1
100
AcDbSymbolTableRecord
100
AcDbBlockTableRecord
  2
*Paper_Space
340
1E
  0
BLOCK_RECORD
  5
23
330
1
100
AcDbSymbolTableRecord
100
AcDbBlockTableRecord
  2
*Paper_Space0
340
26
  0
BLOCK_RECORD
  5
A5
330
1
100
AcDbSymbolTableRecord
100
AcDbBlockTableRecord
  2
SW_CENTERMARKSYMBOL_0
340
0
102
{BLKREFS
331
B0
102
}
  0
BLOCK_RECORD
  5
C1
330
1
100
AcDbSymbolTableRecord
100
AcDbBlockTableRecord
  2
SW_CENTERMARKSYMBOL_1
340
0
102
{BLKREFS
331
CC
102
}
  0
BLOCK_RECORD
  5
DE
330
1
100
AcDbSymbolTableRecord
100
AcDbBlockTableRecord
  2
SW_CENTERMARKSYMBOL_2
340
0
102
{BLKREFS
331
E9
102
}
  0
BLOCK_RECORD
  5
F9
330
1
100
AcDbSymbolTableRecord
100
AcDbBlockTableRecord
  2
SW_CENTERMARKSYMBOL_3
340
0
102
{BLKREFS
331
104
102
}
  0
ENDTAB
  0
ENDSEC
  0
SECTION
  2
BLOCKS
  0
BLOCK
  5
20
330
1F
100
AcDbEntity
  8
0
100
AcDbBlockBegin
  2
*Model_Space
 70
     0
 10
0.0
 20
0.0
 30
0.0
  3
*Model_Space
  1

  0
ENDBLK
  5
21
330
1F
100
AcDbEntity
  8
0
100
AcDbBlockEnd
  0
BLOCK
  5
1C
330
1B
100
AcDbEntity
 67
     1
  8
0
100
AcDbBlockBegin
  2
*Paper_Space
 70
     0
 10
0.0
 20
0.0
 30
0.0
  3
*Paper_Space
  1

  0
ENDBLK
  5
1D
330
1B
100
AcDbEntity
 67
     1
  8
0
100
AcDbBlockEnd
  0
BLOCK
  5
24
330
23
100
AcDbEntity
  8
0
100
AcDbBlockBegin
  2
*Paper_Space0
 70
     0
 10
0.0
 20
0.0
 30
0.0
  3
*Paper_Space0
  1

  0
ENDBLK
  5
25
330
23
100
AcDbEntity
  8
0
100
AcDbBlockEnd
  0
BLOCK
  5
A6
330
A5
100
AcDbEntity
  8
0
100
AcDbBlockBegin
  2
SW_CENTERMARKSYMBOL_0
 70
     0
 10
0.0
 20
0.0
 30
0.0
  3
SW_CENTERMARKSYMBOL_0
  1

  0
LINE
  5
A8
330
A5
100
AcDbEntity
  8
FORMAT
 62
     0
100
AcDbLine
 10
0.0
 20
0.0
 30
0.0
 11
0.0
 21
2.5
 31
0.0
  0
LINE
  5
A9
330
A5
100
AcDbEntity
  8
FORMAT
 62
     0
100
AcDbLine
 10
0.0
 20
0.0
 30
0.0
 11
-2.5
 21
0.0
 31
0.0
  0
LINE
  5
AA
330
A5
100
AcDbEntity
  8
FORMAT
 62
     0
100
AcDbLine
 10
0.0
 20
0.0
 30
0.0
 11
0.0
 21
-2.5
 31
0.0
  0
LINE
  5
AB
330
A5
100
AcDbEntity
  8
FORMAT
 62
     0
100
AcDbLine
 10
0.0
 20
0.0
 30
0.0
 11
2.5
 21
0.0
 31
0.0
  0
LINE
  5
AC
330
A5
100
AcDbEntity
  8
FORMAT
 62
     0
100
AcDbLine
 10
0.0
 20
5.0
 30
0.0
 11
0.0
 21
71.0
 31
0.0
  0
LINE
  5
AD
330
A5
100
AcDbEntity
  8
FORMAT
 62
     0
100
AcDbLine
 10
-5.0
 20
0.0
 30
0.0
 11
-71.0
 21
0.0
 31
0.0
  0
LINE
  5
AE
330
A5
100
AcDbEntity
  8
FORMAT
 62
     0
100
AcDbLine
 10
0.0
 20
-5.0
 30
0.0
 11
0.0
 21
-71.0
 31
0.0
  0
LINE
  5
AF
330
A5
100
AcDbEntity
  8
FORMAT
 62
     0
100
AcDbLine
 10
5.0
 20
0.0
 30
0.0
 11
71.0
 21
0.0
 31
0.0
  0
ENDBLK
  5
A7
330
A5
100
AcDbEntity
  8
0
100
AcDbBlockEnd
  0
BLOCK
  5
C2
330
C1
100
AcDbEntity
  8
0
100
AcDbBlockBegin
  2
SW_CENTERMARKSYMBOL_1
 70
     0
 10
0.0
 20
0.0
 30
0.0
  3
SW_CENTERMARKSYMBOL_1
  1

  0
LINE
  5
C4
330
C1
100
AcDbEntity
  8
FORMAT
 62
     0
100
AcDbLine
 10
0.0
 20
0.0
 30
0.0
 11
0.0
 21
2.5
 31
0.0
  0
LINE
  5
C5
330
C1
100
AcDbEntity
  8
FORMAT
 62
     0
100
AcDbLine
 10
0.0
 20
0.0
 30
0.0
 11
-2.5
 21
0.0
 31
0.0
  0
LINE
  5
C6
330
C1
100
AcDbEntity
  8
FORMAT
 62
     0
100
AcDbLine
 10
0.0
 20
0.0
 30
0.0
 11
0.0
 21
-2.5
 31
0.0
  0
LINE
  5
C7
330
C1
100
AcDbEntity
  8
FORMAT
 62
     0
100
AcDbLine
 10
0.0
 20
0.0
 30
0.0
 11
2.5
 21
0.0
 31
0.0
  0
LINE
  5
C8
330
C1
100
AcDbEntity
  8
FORMAT
 62
     0
100
AcDbLine
 10
0.0
 20
5.0
 30
0.0
 11
0.0
 21
71.0
 31
0.0
  0
LINE
  5
C9
330
C1
100
AcDbEntity
  8
FORMAT
 62
     0
100
AcDbLine
 10
-5.0
 20
0.0
 30
0.0
 11
-71.0
 21
0.0
 31
0.0
  0
LINE
  5
CA
330
C1
100
AcDbEntity
  8
FORMAT
 62
     0
100
AcDbLine
 10
0.0
 20
-5.0
 30
0.0
 11
0.0
 21
-71.0
 31
0.0
  0
LINE
  5
CB
330
C1
100
AcDbEntity
  8
FORMAT
 62
     0
100
AcDbLine
 10
5.0
 20
0.0
 30
0.0
 11
71.0
 21
0.0
 31
0.0
  0
ENDBLK
  5
C3
330
C1
100
AcDbEntity
  8
0
100
AcDbBlockEnd
  0
BLOCK
  5
DF
330
DE
100
AcDbEntity
  8
0
100
AcDbBlockBegin
  2
SW_CENTERMARKSYMBOL_2
 70
     0
 10
0.0
 20
0.0
 30
0.0
  3
SW_CENTERMARKSYMBOL_2
  1

  0
LINE
  5
E1
330
DE
100
AcDbEntity
  8
FORMAT
 62
     0
100
AcDbLine
 10
0.0
 20
0.0
 30
0.0
 11
0.0
 21
2.5
 31
0.0
  0
LINE
  5
E2
330
DE
100
AcDbEntity
  8
FORMAT
 62
     0
100
AcDbLine
 10
0.0
 20
0.0
 30
0.0
 11
-2.5
 21
0.0
 31
0.0
  0
LINE
  5
E3
330
DE
100
AcDbEntity
  8
FORMAT
 62
     0
100
AcDbLine
 10
0.0
 20
0.0
 30
0.0
 11
0.0
 21
-2.5
 31
0.0
  0
LINE
  5
E4
330
DE
100
AcDbEntity
  8
FORMAT
 62
     0
100
AcDbLine
 10
0.0
 20
0.0
 30
0.0
 11
2.5
 21
0.0
 31
0.0
  0
LINE
  5
E5
330
DE
100
AcDbEntity
  8
FORMAT
 62
     0
100
AcDbLine
 10
0.0
 20
5.0
 30
0.0
 11
0.0
 21
71.0
 31
0.0
  0
LINE
  5
E6
330
DE
100
AcDbEntity
  8
FORMAT
 62
     0
100
AcDbLine
 10
-5.0
 20
0.0
 30
0.0
 11
-71.0
 21
0.0
 31
0.0
  0
LINE
  5
E7
330
DE
100
AcDbEntity
  8
FORMAT
 62
     0
100
AcDbLine
 10
0.0
 20
-5.0
 30
0.0
 11
0.0
 21
-71.0
 31
0.0
  0
LINE
  5
E8
330
DE
100
AcDbEntity
  8
FORMAT
 62
     0
100
AcDbLine
 10
5.0
 20
0.0
 30
0.0
 11
71.0
 21
0.0
 31
0.0
  0
ENDBLK
  5
E0
330
DE
100
AcDbEntity
  8
0
100
AcDbBlockEnd
  0
BLOCK
  5
FA
330
F9
100
AcDbEntity
  8
0
100
AcDbBlockBegin
  2
SW_CENTERMARKSYMBOL_3
 70
     0
 10
0.0
 20
0.0
 30
0.0
  3
SW_CENTERMARKSYMBOL_3
  1

  0
LINE
  5
FC
330
F9
100
AcDbEntity
  8
FORMAT
 62
     0
100
AcDbLine
 10
0.0
 20
0.0
 30
0.0
 11
0.0
 21
2.5
 31
0.0
  0
LINE
  5
FD
330
F9
100
AcDbEntity
  8
FORMAT
 62
     0
100
AcDbLine
 10
0.0
 20
0.0
 30
0.0
 11
-2.5
 21
0.0
 31
0.0
  0
LINE
  5
FE
330
F9
100
AcDbEntity
  8
FORMAT
 62
     0
100
AcDbLine
 10
0.0
 20
0.0
 30
0.0
 11
0.0
 21
-2.5
 31
0.0
  0
LINE
  5
FF
330
F9
100
AcDbEntity
  8
FORMAT
 62
     0
100
AcDbLine
 10
0.0
 20
0.0
 30
0.0
 11
2.5
 21
0.0
 31
0.0
  0
LINE
  5
100
330
F9
100
AcDbEntity
  8
FORMAT
 62
     0
100
AcDbLine
 10
0.0
 20
5.0
 30
0.0
 11
0.0
 21
71.0
 31
0.0
  0
LINE
  5
101
330
F9
100
AcDbEntity
  8
FORMAT
 62
     0
100
AcDbLine
 10
-5.0
 20
0.0
 30
0.0
 11
-71.0
 21
0.0
 31
0.0
  0
LINE
  5
102
330
F9
100
AcDbEntity
  8
FORMAT
 62
     0
100
AcDbLine
 10
0.0
 20
-5.0
 30
0.0
 11
0.0
 21
-71.0
 31
0.0
  0
LINE
  5
103
330
F9
100
AcDbEntity
  8
FORMAT
 62
     0
100
AcDbLine
 10
5.0
 20
0.0
 30
0.0
 11
71.0
 21
0.0
 31
0.0
  0
ENDBLK
  5
FB
330
F9
100
AcDbEntity
  8
0
100
AcDbBlockEnd
  0
ENDSEC
  0
SECTION
  2
ENTITIES
  0
LINE
  5
83
330
1F
100
AcDbEntity
  8
0
  6
Continuous
 62
     7
370
    25
100
AcDbLine
 10
35.0577430894
 20
70.5768479631
 30
0.0
 11
35.0577430894
 21
5.5768479631
 31
0.0
  0
LINE
  5
84
330
1F
100
AcDbEntity
  8
0
  6
Continuous
 62
     7
370
    25
100
AcDbLine
 10
172.0577430894
 20
5.5768479631
 30
0.0
 11
172.0577430894
 21
70.5768479631
 31
0.0
  0
ARC
  5
85
330
1F
100
AcDbEntity
  8
0
  6
Continuous
 62
     7
370
    25
100
AcDbCircle
 10
173.5577430894
 20
70.5768479631
 30
0.0
 40
1.5
100
AcDbArc
 50
90.0
 51
180.0
  0
ARC
  5
86
330
1F
100
AcDbEntity
  8
0
  6
Continuous
 62
     7
370
    25
100
AcDbCircle
 10
173.5577430894
 20
70.5768479631
 30
0.0
 40
138.5
100
AcDbArc
 50
90.0
 51
180.0
  0
LINE
  5
87
330
1F
100
AcDbEntity
  8
0
  6
Continuous
 62
     7
370
    25
100
AcDbLine
 10
238.5577430894
 20
209.0768479631
 30
0.0
 11
173.5577430894
 21
209.0768479631
 31
0.0
  0
LINE
  5
88
330
1F
100
AcDbEntity
  8
0
  6
Continuous
 62
     7
370
    25
100
AcDbLine
 10
173.5577430894
 20
72.0768479631
 30
0.0
 11
238.5577430894
 21
72.0768479631
 31
0.0
  0
CIRCLE
  5
89
330
1F
100
AcDbEntity
  8
0
  6
Continuous
 62
     7
370
    25
100
AcDbCircle
 10
103.5577430894
 20
15.5768479631
 30
0.0
 40
5.0
  0
CIRCLE
  5
8A
330
1F
100
AcDbEntity
  8
0
  6
Continuous
 62
     7
370
    25
100
AcDbCircle
 10
103.5577430894
 20
15.5768479631
 30
0.0
 40
7.0
  0
CIRCLE
  5
8B
330
1F
100
AcDbEntity
  8
0
  6
Continuous
 62
     7
370
    25
100
AcDbCircle
 10
228.5577430894
 20
140.5768479631
 30
0.0
 40
7.000000000000028
  0
CIRCLE
  5
8C
330
1F
100
AcDbEntity
  8
0
  6
Continuous
 62
     7
370
    25
100
AcDbCircle
 10
228.5577430894
 20
140.5768479631
 30
0.0
 40
5.0
  0
LINE
  5
8D
330
1F
100
AcDbEntity
  8
0
  6
Continuous
 62
     7
370
    25
100
AcDbLine
 10
103.5577430894
 20
5.5768479631
 30
0.0
 11
172.0577430894
 21
5.5768479631
 31
0.0
  0
LINE
  5
8E
330
1F
100
AcDbEntity
  8
0
  6
Continuous
 62
     7
370
    25
100
AcDbLine
 10
35.0577430894
 20
5.5768479631
 30
0.0
 11
103.5577430894
 21
5.5768479631
 31
0.0
  0
LINE
  5
8F
330
1F
100
AcDbEntity
  8
0
  6
Continuous
 62
     7
370
    25
100
AcDbLine
 10
238.5577430894
 20
140.5768479631
 30
0.0
 11
238.5577430894
 21
72.0768479631
 31
0.0
  0
LINE
  5
90
330
1F
100
AcDbEntity
  8
0
  6
Continuous
 62
     7
370
    25
100
AcDbLine
 10
238.5577430894
 20
209.0768479631
 30
0.0
 11
238.5577430894
 21
140.5768479631
 31
0.0
  0
LINE
  5
91
330
1F
100
AcDbEntity
  8
0
  6
Continuous
 62
     1
370
    25
100
AcDbLine
 10
103.5577430894
 20
70.5768479631
 30
0.0
 11
172.0577430894
 21
70.5768479631
 31
0.0
  0
LINE
  5
92
330
1F
100
AcDbEntity
  8
0
  6
Continuous
 62
     1
370
    25
100
AcDbLine
 10
35.0577430894
 20
70.5768479631
 30
0.0
 11
103.5577430894
 21
70.5768479631
 31
0.0
  0
LINE
  5
93
330
1F
100
AcDbEntity
  8
0
  6
Continuous
 62
     1
370
    25
100
AcDbLine
 10
173.5577430894
 20
140.5768479631
 30
0.0
 11
173.5577430894
 21
72.0768479631
 31
0.0
  0
LINE
  5
94
330
1F
100
AcDbEntity
  8
0
  6
Continuous
 62
     1
370
    25
100
AcDbLine
 10
173.5577430894
 20
209.0768479631
 30
0.0
 11
173.5577430894
 21
140.5768479631
 31
0.0
  0
LINE
  5
95
330
1F
100
AcDbEntity
  8
0
  6
Continuous
 62
     7
370
    25
100
AcDbLine
 10
-204.0107965128
 20
147.5768479631
 30
0.0
 11
-220.3691054509
 21
147.5768479631
 31
0.0
  0
LINE
  5
96
330
1F
100
AcDbEntity
  8
0
  6
Continuous
 62
     7
370
    25
100
AcDbLine
 10
-220.3691054509
 20
133.5768479631
 30
0.0
 11
-204.0195006006
 21
133.5768479631
 31
0.0
  0
LINE
  5
97
330
1F
100
AcDbEntity
  8
0
  6
Continuous
 62
     7
370
    25
100
AcDbLine
 10
-204.3691054509
 20
133.5768479631
 30
0.0
 11
-204.3691054509
 21
70.5768479631
 31
0.0
  0
LINE
  5
98
330
1F
100
AcDbEntity
  8
0
  6
Continuous
 62
     7
370
    25
100
AcDbLine
 10
-67.3691054509
 20
70.5768479631
 30
0.0
 11
-67.3691054509
 21
140.5768479631
 31
0.0
  0
LINE
  5
99
330
1F
100
AcDbEntity
  8
0
  6
Continuous
 62
     7
370
    25
100
AcDbLine
 10
-204.3691054509
 20
8.5768479631
 30
0.0
 11
-204.3691054509
 21
5.5768479631
 31
0.0
  0
LINE
  5
9A
330
1F
100
AcDbEntity
  8
0
  6
Continuous
 62
     7
370
    25
100
AcDbLine
 10
-204.3691054509
 20
70.5768479631
 30
0.0
 11
-204.3691054509
 21
22.4896179064
 31
0.0
  0
LINE
  5
9B
330
1F
100
AcDbEntity
  8
0
  6
Continuous
 62
     7
370
    25
100
AcDbLine
 10
-67.3691054509
 20
5.5768479631
 30
0.0
 11
-67.3691054509
 21
70.5768479631
 31
0.0
  0
LINE
  5
9C
330
1F
100
AcDbEntity
  8
0
  6
Continuous
 62
     7
370
    25
100
AcDbLine
 10
-204.360304748
 20
22.5768479631
 30
0.0
 11
-220.3691054509
 21
22.5768479631
 31
0.0
  0
LINE
  5
9D
330
1F
100
AcDbEntity
  8
0
  6
Continuous
 62
     7
370
    25
100
AcDbLine
 10
-220.3691054509
 20
8.5768479631
 30
0.0
 11
-204.3691054509
 21
8.5768479631
 31
0.0
  0
CIRCLE
  5
9E
330
1F
100
AcDbEntity
  8
0
  6
Continuous
 62
     7
370
    25
100
AcDbCircle
 10
-135.8691054509
 20
140.5768479631
 30
0.0
 40
68.50000000000003
  0
CIRCLE
  5
9F
330
1F
100
AcDbEntity
  8
0
  6
Continuous
 62
     7
370
    25
100
AcDbCircle
 10
-135.8691054509
 20
140.5768479631
 30
0.0
 40
55.0
  0
LINE
  5
A0
330
1F
100
AcDbEntity
  8
0
  6
Continuous
 62
     7
370
    25
100
AcDbLine
 10
-220.3691054509
 20
147.5768479631
 30
0.0
 11
-220.3691054509
 21
133.5768479631
 31
0.0
  0
SPLINE
  5
A1
330
1F
100
AcDbEntity
  8
0
  6
Continuous
 62
     7
370
    25
100
AcDbSpline
210
0.0
220
0.0
230
1.0
 70
     8
 71
     3
 72
    17
 73
    13
 74
     0
 42
0.00000001
 43
0.00000001
 40
0.0
 40
0.0
 40
0.0
 40
0.0
 40
0.1069906878027362
 40
0.2139679993160959
 40
0.3212931143186895
 40
0.428852881690364
 40
0.5360321204060325
 40
0.6428090854817724
 40
0.74978964507561
 40
0.8572609732160776
 40
0.9647469069768981
 40
1.0
 40
1.0
 40
1.0
 40
1.0
 10
-204.3691054509053
 20
8.576847963106905
 30
0.0
 10
-204.3610170081331
 20
8.653831085326317
 30
0.0
 10
-204.3448411338298
 20
8.807787705109558
 30
0.0
 10
-204.2322531832379
 20
10.00742874338375
 30
0.0
 10
-204.1064532845946
 20
11.77739498814438
 30
0.0
 10
-204.015351433849
 20
13.99346465007856
 30
0.0
 10
-204.0014517985007
 20
16.38274461840378
 30
0.0
 10
-204.0693662144637
 20
18.67297278184279
 30
0.0
 10
-204.1910712341309
 20
20.63110189253637
 30
0.0
 10
-204.3072543133212
 20
21.97168672604771
 30
0.0
 10
-204.3726881754675
 20
22.61238453068205
 30
0.0
 10
-204.3627341244668
 20
22.51393304595322
 30
0.0
 10
-204.3602757142213
 20
22.48961790644578
 30
0.0
  0
LINE
  5
A2
330
1F
100
AcDbEntity
  8
0
  6
Continuous
 62
     7
370
    25
100
AcDbLine
 10
-204.3691054509
 20
5.5768479631
 30
0.0
 11
-67.3691054509
 21
5.5768479631
 31
0.0
  0
LINE
  5
A3
330
1F
100
AcDbEntity
  8
0
  6
Continuous
 62
     7
370
    25
100
AcDbLine
 10
-220.3691054509
 20
22.5768479631
 30
0.0
 11
-220.3691054509
 21
8.5768479631
 31
0.0
  0
LINE
  5
A4
330
1F
100
AcDbEntity
  8
0
  6
Continuous
 62
     1
370
    25
100
AcDbLine
 10
-204.3691054509
 20
70.5768479631
 30
0.0
 11
-67.3691054509
 21
70.5768479631
 31
0.0
  0
INSERT
  5
B0
330
1F
100
AcDbEntity
  8
FORMAT
 62
     7
100
AcDbBlockReference
  2
SW_CENTERMARKSYMBOL_0
 10
-135.8691054509
 20
140.5768479631
 30
0.0
  0
LINE
  5
B1
330
1F
100
AcDbEntity
  8
0
  6
Continuous
 62
     7
370
    25
100
AcDbLine
 10
110.5577430894
 20
398.1689474576
 30
0.0
 11
110.5577430894
 21
414.518552308
 31
0.0
  0
LINE
  5
B2
330
1F
100
AcDbEntity
  8
0
  6
Continuous
 62
     7
370
    25
100
AcDbLine
 10
96.5577430894
 20
414.518552308
 30
0.0
 11
96.5577430894
 21
398.1602433699
 31
0.0
  0
LINE
  5
B3
330
1F
100
AcDbEntity
  8
0
  6
Continuous
 62
     7
370
    25
100
AcDbLine
 10
173.5577430894
 20
398.518552308
 30
0.0
 11
110.5577430894
 21
398.518552308
 31
0.0
  0
LINE
  5
B4
330
1F
100
AcDbEntity
  8
0
  6
Continuous
 62
     7
370
    25
100
AcDbLine
 10
103.5577430894
 20
261.518552308
 30
0.0
 11
173.5577430894
 21
261.518552308
 31
0.0
  0
LINE
  5
B5
330
1F
100
AcDbEntity
  8
0
  6
Continuous
 62
     7
370
    25
100
AcDbLine
 10
221.5577430894
 20
398.518552308
 30
0.0
 11
173.5577430894
 21
398.518552308
 31
0.0
  0
LINE
  5
B6
330
1F
100
AcDbEntity
  8
0
  6
Continuous
 62
     7
370
    25
100
AcDbLine
 10
238.5577430894
 20
398.518552308
 30
0.0
 11
235.4705130327
 21
398.518552308
 31
0.0
  0
LINE
  5
B7
330
1F
100
AcDbEntity
  8
0
  6
Continuous
 62
     7
370
    25
100
AcDbLine
 10
173.5577430894
 20
261.518552308
 30
0.0
 11
238.5577430894
 21
261.518552308
 31
0.0
  0
LINE
  5
B8
330
1F
100
AcDbEntity
  8
0
  6
Continuous
 62
     7
370
    25
100
AcDbLine
 10
235.5577430894
 20
398.509751605
 30
0.0
 11
235.5577430894
 21
414.518552308
 31
0.0
  0
LINE
  5
B9
330
1F
100
AcDbEntity
  8
0
  6
Continuous
 62
     7
370
    25
100
AcDbLine
 10
221.5577430894
 20
414.518552308
 30
0.0
 11
221.5577430894
 21
398.518552308
 31
0.0
  0
CIRCLE
  5
BA
330
1F
100
AcDbEntity
  8
0
  6
Continuous
 62
     7
370
    25
100
AcDbCircle
 10
103.5577430894
 20
330.018552308
 30
0.0
 40
55.0
  0
CIRCLE
  5
BB
330
1F
100
AcDbEntity
  8
0
  6
Continuous
 62
     7
370
    25
100
AcDbCircle
 10
103.5577430894
 20
330.018552308
 30
0.0
 40
68.5
  0
LINE
  5
BC
330
1F
100
AcDbEntity
  8
0
  6
Continuous
 62
     7
370
    25
100
AcDbLine
 10
110.5577430894
 20
414.518552308
 30
0.0
 11
96.5577430894
 21
414.518552308
 31
0.0
  0
SPLINE
  5
BD
330
1F
100
AcDbEntity
  8
0
  6
Continuous
 62
     7
370
    25
100
AcDbSpline
210
0.0
220
0.0
230
1.0
 70
     8
 71
     3
 72
    17
 73
    13
 74
     0
 42
0.00000001
 43
0.00000001
 40
0.0
 40
0.0
 40
0.0
 40
0.0
 40
0.1069906878027371
 40
0.2139679993160965
 40
0.3212931143186896
 40
0.4288528816903648
 40
0.5360321204060332
 40
0.6428090854817727
 40
0.7497896450756099
 40
0.8572609732160779
 40
0.9647469069768978
 40
1.0
 40
1.0
 40
1.0
 40
1.0
 10
221.5577430893963
 20
398.5185523079827
 30
0.0
 10
221.6347262116157
 20
398.5104638652106
 30
0.0
 10
221.788682831399
 20
398.4942879909072
 30
0.0
 10
222.9883238696732
 20
398.3817000403154
 30
0.0
 10
224.7582901144338
 20
398.255900141672
 30
0.0
 10
226.974359776368
 20
398.1647982909265
 30
0.0
 10
229.3636397446932
 20
398.1508986555782
 30
0.0
 10
231.6538679081322
 20
398.2188130715411
 30
0.0
 10
233.6119970188258
 20
398.3405180912083
 30
0.0
 10
234.9525818523372
 20
398.4567011703986
 30
0.0
 10
235.5932796569715
 20
398.522135032545
 30
0.0
 10
235.4948281722426
 20
398.5121809815443
 30
0.0
 10
235.4705130327352
 20
398.5097225712987
 30
0.0
  0
LINE
  5
BE
330
1F
100
AcDbEntity
  8
0
  6
Continuous
 62
     7
370
    25
100
AcDbLine
 10
238.5577430894
 20
398.518552308
 30
0.0
 11
238.5577430894
 21
261.518552308
 31
0.0
  0
LINE
  5
BF
330
1F
100
AcDbEntity
  8
0
  6
Continuous
 62
     7
370
    25
100
AcDbLine
 10
235.5577430894
 20
414.518552308
 30
0.0
 11
221.5577430894
 21
414.518552308
 31
0.0
  0
LINE
  5
C0
330
1F
100
AcDbEntity
  8
0
  6
Continuous
 62
     1
370
    25
100
AcDbLine
 10
173.5577430894
 20
398.518552308
 30
0.0
 11
173.5577430894
 21
261.518552308
 31
0.0
  0
INSERT
  5
CC
330
1F
100
AcDbEntity
  8
FORMAT
 62
     7
100
AcDbBlockReference
  2
SW_CENTERMARKSYMBOL_1
 10
103.5577430894
 20
330.018552308
 30
0.0
  0
LINE
  5
CD
330
1F
100
AcDbEntity
  8
0
  6
Continuous
 62
     7
370
    25
100
AcDbLine
 10
320.7250879559
 20
70.5768479631
 30
0.0
 11
320.7250879559
 21
5.5768479631
 31
0.0
  0
LINE
  5
CE
330
1F
100
AcDbEntity
  8
0
  6
Continuous
 62
     7
370
    25
100
AcDbLine
 10
457.7250879559
 20
22.4896179064
 30
0.0
 11
457.7250879559
 21
70.5768479631
 31
0.0
  0
LINE
  5
CF
330
1F
100
AcDbEntity
  8
0
  6
Continuous
 62
     7
370
    25
100
AcDbLine
 10
457.7250879559
 20
5.5768479631
 30
0.0
 11
457.7250879559
 21
8.5768479631
 31
0.0
  0
LINE
  5
D0
330
1F
100
AcDbEntity
  8
0
  6
Continuous
 62
     7
370
    25
100
AcDbLine
 10
457.7250879559
 20
70.5768479631
 30
0.0
 11
457.7250879559
 21
140.5768479631
 31
0.0
  0
LINE
  5
D1
330
1F
100
AcDbEntity
  8
0
  6
Continuous
 62
     7
370
    25
100
AcDbLine
 10
320.7250879559
 20
140.5768479631
 30
0.0
 11
320.7250879559
 21
70.5768479631
 31
0.0
  0
LINE
  5
D2
330
1F
100
AcDbEntity
  8
0
  6
Continuous
 62
     7
370
    25
100
AcDbLine
 10
457.7250879559
 20
8.5768479631
 30
0.0
 11
473.7250879559
 21
8.5768479631
 31
0.0
  0
LINE
  5
D3
330
1F
100
AcDbEntity
  8
0
  6
Continuous
 62
     7
370
    25
100
AcDbLine
 10
473.7250879559
 20
22.5768479631
 30
0.0
 11
457.7250879559
 21
22.5768479631
 31
0.0
  0
LINE
  5
D4
330
1F
100
AcDbEntity
  8
0
  6
Continuous
 62
     7
370
    25
100
AcDbLine
 10
457.7250879559
 20
133.5768479631
 30
0.0
 11
473.7250879559
 21
133.5768479631
 31
0.0
  0
LINE
  5
D5
330
1F
100
AcDbEntity
  8
0
  6
Continuous
 62
     7
370
    25
100
AcDbLine
 10
473.7250879559
 20
147.5768479631
 30
0.0
 11
457.3667790178
 21
147.5768479631
 31
0.0
  0
LINE
  5
D6
330
1F
100
AcDbEntity
  8
0
  6
Continuous
 62
     7
370
    25
100
AcDbLine
 10
320.7250879559
 20
5.5768479631
 30
0.0
 11
457.7250879559
 21
5.5768479631
 31
0.0
  0
ARC
  5
D7
330
1F
100
AcDbEntity
  8
0
  6
Continuous
 62
     7
370
    25
100
AcDbCircle
 10
526.0328123437
 20
15.5765872204
 30
0.0
 40
68.66543206520758
100
AcDbArc
 50
174.2218427073
 51
185.8508827931
  0
ARC
  5
D8
330
1F
100
AcDbEntity
  8
0
  6
Continuous
 62
     7
370
    25
100
AcDbCircle
 10
389.2250879559
 20
140.5768479631
 30
0.0
 40
68.5
100
AcDbArc
 50
0.0
 51
180.0
  0
LINE
  5
D9
330
1F
100
AcDbEntity
  8
0
  6
Continuous
 62
     7
370
    25
100
AcDbLine
 10
473.7250879559
 20
15.5768479631
 30
0.0
 11
473.7250879559
 21
22.5768479631
 31
0.0
  0
LINE
  5
DA
330
1F
100
AcDbEntity
  8
0
  6
Continuous
 62
     7
370
    25
100
AcDbLine
 10
473.7250879559
 20
8.5768479631
 30
0.0
 11
473.7250879559
 21
15.5768479631
 31
0.0
  0
LINE
  5
DB
330
1F
100
AcDbEntity
  8
0
  6
Continuous
 62
     7
370
    25
100
AcDbLine
 10
473.7250879559
 20
140.5768479631
 30
0.0
 11
473.7250879559
 21
147.5768479631
 31
0.0
  0
LINE
  5
DC
330
1F
100
AcDbEntity
  8
0
  6
Continuous
 62
     7
370
    25
100
AcDbLine
 10
473.7250879559
 20
133.5768479631
 30
0.0
 11
473.7250879559
 21
140.5768479631
 31
0.0
  0
LINE
  5
DD
330
1F
100
AcDbEntity
  8
0
  6
Continuous
 62
     1
370
    25
100
AcDbLine
 10
320.7250879559
 20
70.5768479631
 30
0.0
 11
457.7250879559
 21
70.5768479631
 31
0.0
  0
INSERT
  5
E9
330
1F
100
AcDbEntity
  8
FORMAT
 62
     7
100
AcDbBlockReference
  2
SW_CENTERMARKSYMBOL_2
 10
389.2250879559
 20
140.5768479631
 30
0.0
  0
LINE
  5
EA
330
1F
100
AcDbEntity
  8
0
  6
Continuous
 62
     7
370
    25
100
AcDbLine
 10
103.5577430894
 20
-236.9816787269
 30
0.0
 11
173.5577430894
 21
-236.9816787269
 31
0.0
  0
LINE
  5
EB
330
1F
100
AcDbEntity
  8
0
  6
Continuous
 62
     7
370
    25
100
AcDbLine
 10
173.5577430894
 20
-99.9816787269
 30
0.0
 11
103.5577430894
 21
-99.9816787269
 31
0.0
  0
LINE
  5
EC
330
1F
100
AcDbEntity
  8
0
  6
Continuous
 62
     7
370
    25
100
AcDbLine
 10
238.5577430894
 20
-99.9816787269
 30
0.0
 11
173.5577430894
 21
-99.9816787269
 31
0.0
  0
LINE
  5
ED
330
1F
100
AcDbEntity
  8
0
  6
Continuous
 62
     7
370
    25
100
AcDbLine
 10
235.4705130327
 20
-236.9816787269
 30
0.0
 11
238.5577430894
 21
-236.9816787269
 31
0.0
  0
LINE
  5
EE
330
1F
100
AcDbEntity
  8
0
  6
Continuous
 62
     7
370
    25
100
AcDbLine
 10
173.5577430894
 20
-236.9816787269
 30
0.0
 11
221.5577430894
 21
-236.9816787269
 31
0.0
  0
LINE
  5
EF
330
1F
100
AcDbEntity
  8
0
  6
Continuous
 62
     7
370
    25
100
AcDbLine
 10
221.5577430894
 20
-236.9816787269
 30
0.0
 11
221.5577430894
 21
-252.9816787269
 31
0.0
  0
LINE
  5
F0
330
1F
100
AcDbEntity
  8
0
  6
Continuous
 62
     7
370
    25
100
AcDbLine
 10
235.5577430894
 20
-252.9816787269
 30
0.0
 11
235.5577430894
 21
-236.9816787269
 31
0.0
  0
LINE
  5
F1
330
1F
100
AcDbEntity
  8
0
  6
Continuous
 62
     7
370
    25
100
AcDbLine
 10
96.5577430894
 20
-236.6233697888
 30
0.0
 11
96.5577430894
 21
-252.9816787269
 31
0.0
  0
LINE
  5
F2
330
1F
100
AcDbEntity
  8
0
  6
Continuous
 62
     7
370
    25
100
AcDbLine
 10
110.5577430894
 20
-252.9816787269
 30
0.0
 11
110.5577430894
 21
-236.9816787269
 31
0.0
  0
ARC
  5
F3
330
1F
100
AcDbEntity
  8
0
  6
Continuous
 62
     7
370
    25
100
AcDbCircle
 10
103.5577430894
 20
-168.4816787269
 30
0.0
 40
68.5
100
AcDbArc
 50
90.0
 51
270.0
  0
ARC
  5
F4
330
1F
100
AcDbEntity
  8
0
  6
Continuous
 62
     7
370
    25
100
AcDbCircle
 10
228.5574823467
 20
-305.2894031146
 30
0.0
 40
68.6654320651757
100
AcDbArc
 50
84.2218427073
 51
95.8508827931
  0
LINE
  5
F5
330
1F
100
AcDbEntity
  8
0
  6
Continuous
 62
     7
370
    25
100
AcDbLine
 10
238.5577430894
 20
-99.9816787269
 30
0.0
 11
238.5577430894
 21
-236.9816787269
 31
0.0
  0
LINE
  5
F6
330
1F
100
AcDbEntity
  8
0
  6
Continuous
 62
     7
370
    25
100
AcDbLine
 10
221.5577430894
 20
-252.9816787269
 30
0.0
 11
235.5577430894
 21
-252.9816787269
 31
0.0
  0
LINE
  5
F7
330
1F
100
AcDbEntity
  8
0
  6
Continuous
 62
     7
370
    25
100
AcDbLine
 10
96.5577430894
 20
-252.9816787269
 30
0.0
 11
110.5577430894
 21
-252.9816787269
 31
0.0
  0
LINE
  5
F8
330
1F
100
AcDbEntity
  8
0
  6
Continuous
 62
     1
370
    25
100
AcDbLine
 10
173.5577430894
 20
-99.9816787269
 30
0.0
 11
173.5577430894
 21
-236.9816787269
 31
0.0
  0
INSERT
  5
104
330
1F
100
AcDbEntity
  8
FORMAT
 62
     7
100
AcDbBlockReference
  2
SW_CENTERMARKSYMBOL_3
 10
103.5577430894
 20
-168.4816787269
 30
0.0
  0
LINE
  5
105
330
1F
100
AcDbEntity
  8
0
  6
Continuous
 62
     7
370
    25
100
AcDbLine
 10
454.2737903439
 20
-26.2736037566
 30
0.0
 11
408.3118495668
 21
-52.8068673908
 31
0.0
  0
LINE
  5
106
330
1F
100
AcDbEntity
  8
0
  6
Continuous
 62
     7
370
    25
100
AcDbLine
 10
476.8062827523
 20
-171.455561537
 30
0.0
 11
522.7682235295
 21
-144.9222979027
 31
0.0
  0
LINE
  5
107
330
1F
100
AcDbEntity
  8
0
  6
Continuous
 62
     7
370
    25
100
AcDbLine
 10
324.5615914765
 20
-197.8633552097
 30
0.0
 11
324.5615914765
 21
-250.9385079823
 31
0.0
  0
LINE
  5
108
330
1F
100
AcDbEntity
  8
0
  6
Continuous
 62
     7
370
    25
100
AcDbLine
 10
461.5615914765
 20
-250.9385079823
 30
0.0
 11
461.5615914765
 21
-197.8633552097
 31
0.0
  0
LINE
  5
109
330
1F
100
AcDbEntity
  8
0
  6
Continuous
 62
     7
370
    25
100
AcDbLine
 10
436.6400212414
 20
-55.7290915874
 30
0.0
 11
425.1991316788
 21
-49.1244066276
 31
0.0
  0
LINE
  5
10A
330
1F
100
AcDbEntity
  8
0
  6
Continuous
 62
     7
370
    25
100
AcDbLine
 10
418.1997005503
 20
-61.2490907009
 30
0.0
 11
429.6395371495
 21
-67.8531677979
 31
0.0
  0
LINE
  5
10B
330
1F
100
AcDbEntity
  8
0
  6
Continuous
 62
     7
370
    25
100
AcDbLine
 10
348.2510992743
 20
-208.8218685149
 30
0.0
 11
336.8107840304
 21
-202.2175151022
 31
0.0
  0
LINE
  5
10C
330
1F
100
AcDbEntity
  8
0
  6
Continuous
 62
     7
370
    25
100
AcDbLine
 10
329.811352902
 20
-214.3421991756
 30
0.0
 11
341.2522152017
 21
-220.9468683968
 31
0.0
  0
SPLINE
  5
10D
330
1F
100
AcDbEntity
  8
0
  6
Continuous
 62
     7
370
    25
100
AcDbSpline
210
0.0
220
0.0
230
1.0
 70
     8
 71
     3
 72
    37
 73
    33
 74
     0
 42
0.00000001
 43
0.00000001
 40
0.0
 40
0.0
 40
0.0
 40
0.0
 40
0.0025027936603116
 40
0.0400247994821438
 40
0.0762108196781986
 40
0.1115343631170083
 40
0.1462512294378024
 40
0.1805907911839052
 40
0.2147501224360468
 40
0.2488911917877215
 40
0.2831364189749598
 40
0.3175443304444199
 40
0.3521783080867179
 40
0.3870673288113493
 40
0.4222099821546233
 40
0.4575794130659529
 40
0.4931292426038691
 40
0.5288002134105978
 40
0.5645203179609564
 40
0.6002111763047039
 40
0.635821766100354
 40
0.6713203577513712
 40
0.7067014448869804
 40
0.7419919139262298
 40
0.7772560447692413
 40
0.8125989639876904
 40
0.8481345335966695
 40
0.8840235469485851
 40
0.9204787338362933
 40
0.9577484688991182
 40
0.9961117274228788
 40
1.0
 40
1.0
 40
1.0
 40
1.0
 10
461.5614281174651
 20
-197.8869503356349
 30
0.0
 10
461.5614197722736
 20
-197.888012125823
 30
0.0
 10
461.5612863155598
 20
-197.9049923268049
 30
0.0
 10
461.563375262892
 20
-197.8086331064674
 30
0.0
 10
461.585918960396
 20
-197.5238950168489
 30
0.0
 10
461.6414971554134
 20
-197.050556344753
 30
0.0
 10
461.7418080082533
 20
-196.4114158018712
 30
0.0
 10
461.8973787979638
 20
-195.6125242712033
 30
0.0
 10
462.1173653535074
 20
-194.665662083873
 30
0.0
 10
462.4094757635899
 20
-193.5828272910578
 30
0.0
 10
462.7796444818557
 20
-192.3784241226433
 30
0.0
 10
463.231832613518
 20
-191.068690696438
 30
0.0
 10
463.7678235313992
 20
-189.6716992089603
 30
0.0
 10
464.3872332151877
 20
-188.206760537568
 30
0.0
 10
465.087168089179
 20
-186.6947228949516
 30
0.0
 10
465.8621072916768
 20
-185.1576159743128
 30
0.0
 10
466.7038783319592
 20
-183.6181704965948
 30
0.0
 10
467.6016799070267
 20
-182.0993416736833
 30
0.0
 10
468.5421858254556
 20
-180.623773387654
 30
0.0
 10
469.5099921853862
 20
-179.2128472466969
 30
0.0
 10
470.4881376475163
 20
-177.8859133511471
 30
0.0
 10
471.4586842203642
 20
-176.6596621945826
 30
0.0
 10
472.4030631621471
 20
-175.5479353768735
 30
0.0
 10
473.3025284067363
 20
-174.5614681290077
 30
0.0
 10
474.1385805166911
 20
-173.7077666894224
 30
0.0
 10
474.8929232363997
 20
-172.9914406884265
 30
0.0
 10
475.5481930714728
 20
-172.4138947305197
 30
0.0
 10
476.0869093942761
 20
-171.9741581311567
 30
0.0
 10
476.4968390195494
 20
-171.6660102253446
 30
0.0
 10
476.7506355307408
 20
-171.4903302350939
 30
0.0
 10
476.8418624252631
 20
-171.4346682916509
 30
0.0
 10
476.8267190555724
 20
-171.4435805950855
 30
0.0
 10
476.8253254599427
 20
-171.4444007657193
 30
0.0
  0
SPLINE
  5
10E
330
1F
100
AcDbEntity
  8
0
  6
Continuous
 62
     7
370
    25
100
AcDbSpline
210
0.0
220
0.0
230
1.0
 70
     8
 71
     3
 72
    41
 73
    37
 74
     0
 42
0.00000001
 43
0.00000001
 40
0.0
 40
0.0
 40
0.0
 40
0.0
 40
0.0193486862542453
 40
0.049246561435616
 40
0.0792102525807253
 40
0.1093083190800786
 40
0.1394933904623261
 40
0.1697185758473302
 40
0.1999394316100338
 40
0.2301284275536311
 40
0.2602659151729361
 40
0.2903398727623088
 40
0.3203451489363803
 40
0.3502824775116588
 40
0.3801574354059903
 40
0.4099794541666755
 40
0.4397609420616503
 40
0.4695165340957769
 40
0.4992624616096907
 40
0.5290160181075804
 40
0.5587922592033737
 40
0.5886061261244173
 40
0.6184755503413797
 40
0.6484178371247751
 40
0.6784491197846999
 40
0.7085837050165068
 40
0.738833274929018
 40
0.7692059221368215
 40
0.7997050152589568
 40
0.8303279288429877
 40
0.8610647280989676
 40
0.8918969738710006
 40
0.922796895144348
 40
0.9537164864595676
 40
0.9846037675199001
 40
1.0
 40
1.0
 40
1.0
 40
1.0
 10
408.31184956676
 20
-52.80686739080456
 30
0.0
 10
407.3722276033675
 20
-53.35838893172967
 30
0.0
 10
404.9806879330033
 20
-54.76212968659763
 30
0.0
 10
401.205235545598
 20
-57.16975470971647
 30
0.0
 10
396.9964263526454
 20
-60.05795444584231
 30
0.0
 10
392.8614862198721
 20
-63.1173600814893
 30
0.0
 10
388.8030410623808
 20
-66.33975932157851
 30
0.0
 10
384.830586464263
 20
-69.71665666415663
 30
0.0
 10
380.9518992468303
 20
-73.23822636599047
 30
0.0
 10
377.1735006612369
 20
-76.89527462485334
 30
0.0
 10
373.5004050123504
 20
-80.67929477780491
 30
0.0
 10
369.9367049206129
 20
-84.5823678430743
 30
0.0
 10
366.485727670317
 20
-88.59720291852722
 30
0.0
 10
363.1502236083279
 20
-92.71715228810027
 30
0.0
 10
359.9325424083228
 20
-96.93617699306253
 30
0.0
 10
356.8347904870776
 20
-101.2487921274865
 30
0.0
 10
353.8589633944144
 20
-105.6500012906647
 30
0.0
 10
351.0070539163881
 20
-110.1352291367008
 30
0.0
 10
348.2811389731496
 20
-114.700255837017
 30
0.0
 10
345.6835320280105
 20
-119.3410073499415
 30
0.0
 10
343.216825007004
 20
-124.0534682469105
 30
0.0
 10
340.8838239045129
 20
-128.8337857146527
 30
0.0
 10
338.6875238858275
 20
-133.6783713832226
 30
0.0
 10
336.6311647532184
 20
-138.5838599073638
 30
0.0
 10
334.718354948532
 20
-143.5468527309272
 30
0.0
 10
332.9531035817238
 20
-148.563806423193
 30
0.0
 10
331.3398429478437
 20
-153.6308943756256
 30
0.0
 10
329.8834387195006
 20
-158.7438375490219
 30
0.0
 10
328.5891674585036
 20
-163.8977052239033
 30
0.0
 10
327.4626942389811
 20
-169.0866872486257
 30
0.0
 10
326.5098732014779
 20
-174.3038709424552
 30
0.0
 10
325.7369784226438
 20
-179.5409855813035
 30
0.0
 10
325.1491093674514
 20
-184.7877911890608
 30
0.0
 10
324.7551772226293
 20
-190.0317314979009
 30
0.0
 10
324.581905403558
 20
-194.3906809669737
 30
0.0
 10
324.5666621514483
 20
-196.9965212257879
 30
0.0
 10
324.561591476487
 20
-197.8633552096786
 30
0.0
  0
LWPOLYLINE
  5
10F
330
1F
100
AcDbEntity
  8
0
  6
Continuous
 62
     7
370
    25
100
AcDbPolyline
 90
      111
 70
   128
 43
0.0
 10
440.0841924254
 20
-57.6359729997
 10
440.163187836
 20
-60.8747271416
 10
440.3999164012
 20
-64.1941233004
 10
440.7936059617
 20
-67.5833342958
 10
441.342972384
 20
-71.0313052259
 10
442.0462237488
 20
-74.5267895263
 10
442.9010661966
 20
-78.0583856536
 10
443.9047114088
 20
-81.6145742755
 10
445.0538857034
 20
-85.1837558437
 10
446.3448407128
 20
-88.7542884299
 10
447.77336561
 20
-92.3145256989
 10
449.3348008437
 20
-95.8528548967
 10
451.0240533367
 20
-99.357734729
 10
452.8356130985
 20
-102.8177330061
 10
454.7635711978
 20
-106.221563933
 10
456.8016390358
 20
-109.5581249206
 10
458.9431688591
 20
-112.8165328005
 10
461.1811754423
 20
-115.9861593235
 10
463.5083588732
 20
-119.0566658266
 10
465.9171283631
 20
-122.0180369558
 10
468.3996270067
 20
-124.8606133341
 10
470.9477574093
 20
-127.5751230682
 10
473.5532080993
 20
-130.1527119915
 10
476.207480638
 20
-132.5849725446
 10
478.90191734
 20
-134.8639711993
 10
481.627729513
 20
-136.9822743356
 10
484.3760261242
 20
-138.932972489
 10
487.1378428012
 20
-140.7097028875
 10
489.9041710721
 20
-142.3066702059
 10
492.6659877492
 20
-143.7186654687
 10
495.4142843603
 20
-144.9410830409
 10
498.1400965333
 20
-145.9699356505
 10
500.8345332354
 20
-146.801867394
 10
503.488805774
 20
-147.434164683
 10
506.094256464
 20
-147.8647650953
 10
508.6423868666
 20
-148.0922641017
 10
511.1248855102
 20
-148.1159196478
 10
513.5336550002
 20
-147.9356545741
 10
515.8608384311
 20
-147.5520568679
 10
518.0988450143
 20
-146.966377745
 10
520.2403748375
 20
-146.1805275692
 10
522.2784426756
 20
-145.1970696202
 10
524.2064007748
 20
-144.0192117335
 10
526.0179605367
 20
-142.6507958368
 10
527.7072130297
 20
-141.0962854182
 10
529.2686482634
 20
-139.3607509676
 10
530.6971731605
 20
-137.4498534378
 10
531.9881281699
 20
-135.3698257791
 10
533.1373024645
 20
-133.1274526095
 10
534.1409476768
 20
-130.7300480843
 10
534.9957901245
 20
-128.1854320386
 10
535.6990414894
 20
-125.5019044812
 10
536.2484079116
 20
-122.688218521
 10
536.6420974721
 20
-119.7535518169
 10
536.8788260373
 20
-116.7074766418
 10
536.9578214479
 20
-113.5599286596
 10
536.8788260373
 20
-110.3211745177
 10
536.6420974721
 20
-107.0017783589
 10
536.2484079116
 20
-103.6125673635
 10
535.6990414894
 20
-100.1645964334
 10
534.9957901245
 20
-96.669112133
 10
534.1409476768
 20
-93.1375160056
 10
533.1373024645
 20
-89.5813273838
 10
531.9881281699
 20
-86.0121458155
 10
530.6971731605
 20
-82.4416132294
 10
529.2686482634
 20
-78.8813759604
 10
527.7072130297
 20
-75.3430467626
 10
526.0179605367
 20
-71.8381669303
 10
524.2064007748
 20
-68.3781686532
 10
522.2784426756
 20
-64.9743377263
 10
520.2403748375
 20
-61.6377767387
 10
518.0988450143
 20
-58.3793688588
 10
515.8608384311
 20
-55.2097423358
 10
513.5336550002
 20
-52.1392358327
 10
511.1248855102
 20
-49.1778647035
 10
508.6423868666
 20
-46.3352883251
 10
506.094256464
 20
-43.6207785911
 10
503.488805774
 20
-41.0431896678
 10
500.8345332354
 20
-38.6109291147
 10
498.1400965333
 20
-36.33193046
 10
495.4142843603
 20
-34.2136273237
 10
492.6659877492
 20
-32.2629291703
 10
489.9041710721
 20
-30.4861987718
 10
487.1378428012
 20
-28.8892314534
 10
484.3760261242
 20
-27.4772361906
 10
481.627729513
 20
-26.2548186184
 10
478.90191734
 20
-25.2259660088
 10
476.207480638
 20
-24.3940342653
 10
473.5532080993
 20
-23.7617369763
 10
470.9477574093
 20
-23.331136564
 10
468.3996270067
 20
-23.1036375576
 10
465.9171283631
 20
-23.0799820115
 10
463.5083588732
 20
-23.2602470851
 10
461.1811754423
 20
-23.6438447914
 10
458.9431688591
 20
-24.2295239142
 10
456.8016390358
 20
-25.0153740901
 10
454.7635711978
 20
-25.9988320391
 10
452.8356130985
 20
-27.1766899258
 10
451.0240533367
 20
-28.5451058225
 10
449.3348008437
 20
-30.0996162411
 10
447.77336561
 20
-31.8351506916
 10
446.3448407128
 20
-33.7460482215
 10
445.0538857034
 20
-35.8260758802
 10
443.9047114088
 20
-38.0684490497
 10
442.9010661966
 20
-40.465853575
 10
442.0462237488
 20
-43.0104696207
 10
441.342972384
 20
-45.6939971781
 10
440.7936059617
 20
-48.5076831383
 10
440.3999164012
 20
-51.4423498424
 10
440.163187836
 20
-54.4884250175
 10
440.0841924254
 20
-57.6359729997
  0
LWPOLYLINE
  5
110
330
1F
100
AcDbEntity
  8
0
  6
Continuous
 62
     7
370
    25
100
AcDbPolyline
 90
       99
 70
   128
 43
0.0
 10
449.6301339714
 20
-63.1467277545
 10
449.710039441
 20
-60.315478981
 10
449.9494275009
 20
-57.5881213073
 10
450.3473144542
 20
-54.9758620313
 10
450.9020652983
 20
-52.4894354865
 10
451.6114004427
 20
-50.139058933
 10
452.4724050774
 20
-47.9343905723
 10
453.4815411494
 20
-45.8844898595
 10
454.6346619024
 20
-43.9977802762
 10
455.9270289156
 20
-42.2820147171
 10
457.353331576
 20
-40.7442436306
 10
458.9077088998
 20
-39.3907860481
 10
460.5837736173
 20
-38.2272036171
 10
462.3746384191
 20
-37.2582777474
 10
464.2729442574
 20
-36.4879899632
 10
466.2708905866
 20
-35.9195055422
 10
468.3602674164
 20
-35.555160509
 10
470.5324890493
 20
-35.3964520353
 10
472.7786293608
 20
-35.4440322883
 10
475.0894584785
 20
-35.6977057506
 10
477.4554807099
 20
-36.1564300236
 10
479.8669735621
 20
-36.8183201106
 10
482.3140276937
 20
-37.6806561635
 10
484.7865876344
 20
-38.7398946585
 10
487.274493105
 20
-39.9916829572
 10
489.7675207683
 20
-41.4308771931
 10
492.255426239
 20
-43.0515634085
 10
494.7279861797
 20
-44.8470818559
 10
497.1750403113
 20
-46.8100543649
 10
499.5865331635
 20
-48.9324146605
 10
501.9525553948
 20
-51.205441509
 10
504.2633845125
 20
-53.6197945554
 10
506.509524824
 20
-56.1655527053
 10
508.681746457
 20
-58.8322548922
 10
510.7711232868
 20
-61.608943065
 10
512.7690696159
 20
-64.4842072164
 10
514.6673754543
 20
-67.4462322691
 10
516.458240256
 20
-70.4828466269
 10
518.1343049735
 20
-73.5815721901
 10
519.6886822974
 20
-76.7296756306
 10
521.1149849577
 20
-79.9142207161
 10
522.407351971
 20
-83.1221214679
 10
523.5604727239
 20
-86.3401959335
 10
524.569608796
 20
-89.5552203548
 10
525.4306134306
 20
-92.7539835068
 10
526.1399485751
 20
-95.9233409855
 10
526.6946994191
 20
-99.0502692213
 10
527.0925863725
 20
-102.1219189954
 10
527.3319744324
 20
-105.1256682398
 10
527.4118799019
 20
-108.0491739048
 10
527.3319744324
 20
-110.8804226783
 10
527.0925863725
 20
-113.607780352
 10
526.6946994191
 20
-116.220039628
 10
526.1399485751
 20
-118.7064661728
 10
525.4306134306
 20
-121.0568427262
 10
524.569608796
 20
-123.261511087
 10
523.5604727239
 20
-125.3114117998
 10
522.407351971
 20
-127.198121383
 10
521.1149849577
 20
-128.9138869422
 10
519.6886822974
 20
-130.4516580287
 10
518.1343049735
 20
-131.8051156112
 10
516.458240256
 20
-132.9686980422
 10
514.6673754543
 20
-133.9376239119
 10
512.7690696159
 20
-134.7079116961
 10
510.7711232868
 20
-135.2763961171
 10
508.681746457
 20
-135.6407411503
 10
506.509524824
 20
-135.799449624
 10
504.2633845125
 20
-135.751869371
 10
501.9525553948
 20
-135.4981959086
 10
499.5865331634
 20
-135.0394716357
 10
497.1750403113
 20
-134.3775815486
 10
494.7279861797
 20
-133.5152454957
 10
492.255426239
 20
-132.4560070008
 10
489.7675207683
 20
-131.2042187021
 10
487.274493105
 20
-129.7650244662
 10
484.7865876344
 20
-128.1443382508
 10
482.3140276937
 20
-126.3488198034
 10
479.8669735621
 20
-124.3858472944
 10
477.4554807099
 20
-122.2634869988
 10
475.0894584785
 20
-119.9904601503
 10
472.7786293608
 20
-117.5761071039
 10
470.5324890493
 20
-115.030348954
 10
468.3602674164
 20
-112.3636467671
 10
466.2708905866
 20
-109.5869585943
 10
464.2729442574
 20
-106.7116944429
 10
462.3746384191
 20
-103.7496693902
 10
460.5837736173
 20
-100.7130550324
 10
458.9077088998
 20
-97.6143294692
 10
457.353331576
 20
-94.4662260287
 10
455.9270289156
 20
-91.2816809432
 10
454.6346619024
 20
-88.0737801914
 10
453.4815411494
 20
-84.8557057258
 10
452.4724050774
 20
-81.6406813045
 10
451.6114004427
 20
-78.4419181525
 10
450.9020652983
 20
-75.2725606738
 10
450.3473144542
 20
-72.1456324379
 10
449.9494275009
 20
-69.0739826639
 10
449.710039441
 20
-66.0702334195
 10
449.6301339714
 20
-63.1467277545
  0
SPLINE
  5
111
330
1F
100
AcDbEntity
  8
0
  6
Continuous
 62
     7
370
    25
100
AcDbSpline
210
0.0
220
0.0
230
1.0
 70
     8
 71
     3
 72
    17
 73
    13
 74
     0
 42
0.00000001
 43
0.00000001
 40
0.0
 40
0.0
 40
0.0
 40
0.0
 40
0.0713784119426061
 40
0.1789379985366607
 40
0.2861170571142699
 40
0.3928938427280585
 40
0.4998742225177598
 40
0.6073453700292484
 40
0.7148311231365413
 40
0.8218344337836329
 40
0.9286112552942709
 40
1.0
 40
1.0
 40
1.0
 40
1.0
 10
429.6812227897943
 20
-67.77530526256095
 30
0.0
 10
429.9620124532424
 20
-67.9385817384156
 30
0.0
 10
430.6659219269862
 20
-68.3478982950943
 30
0.0
 10
432.1525869282576
 20
-68.17209502615378
 30
0.0
 10
433.8401890730901
 20
-67.33117531618893
 30
0.0
 10
435.4165118848082
 20
-65.82023067027937
 30
0.0
 10
436.7070516439236
 20
-63.84963900322641
 30
0.0
 10
437.6000811805385
 20
-61.64302301368163
 30
0.0
 10
438.022604232724
 20
-59.46011842573398
 30
0.0
 10
437.922871160955
 20
-57.59449846272277
 30
0.0
 10
437.4448324206929
 20
-56.29159845631968
 30
0.0
 10
436.837148743116
 20
-55.94330571126952
 30
0.0
 10
436.5936573893059
 20
-55.80374910452846
 30
0.0
  0
LWPOLYLINE
  5
112
330
1F
100
AcDbEntity
  8
0
  6
Continuous
 62
     7
370
    25
100
AcDbPolyline
 90
      111
 70
   128
 43
0.0
 10
344.6247769652
 20
-222.9765301523
 10
347.4689725183
 20
-221.4258171685
 10
350.4618817178
 20
-219.9713684478
 10
353.5937423162
 20
-218.6179280997
 10
356.854338835
 20
-217.3699107653
 10
360.2330358862
 20
-216.2313872177
 10
363.7188128622
 20
-215.2060710841
 10
367.3002998831
 20
-214.2973067325
 10
370.9658148826
 20
-213.5080583635
 10
374.7034017128
 20
-212.8409003411
 10
378.5008691421
 20
-212.2980087962
 10
382.3458306212
 20
-211.8811545281
 10
386.225744685
 20
-211.5916972289
 10
390.1279558601
 20
-211.4305810479
 10
394.0397359448
 20
-211.3983315129
 10
397.9483255256
 20
-211.4950538149
 10
401.8409755957
 20
-211.720432466
 10
405.7049891395
 20
-212.0737323279
 10
409.5277625482
 20
-212.5538010099
 10
413.2968267293
 20
-213.1590726276
 10
416.999887779
 20
-213.887572911
 10
420.6248670818
 20
-214.7369256434
 10
424.1599407086
 20
-215.7043604128
 10
427.5935779842
 20
-216.7867216481
 10
430.9145790972
 20
-217.9804789119
 10
434.1121116325
 20
-219.2817384161
 10
437.1757459035
 20
-220.6862557227
 10
440.095488972
 20
-222.1894495882
 10
442.8618172429
 20
-223.7864169066
 10
445.4657075285
 20
-225.4719487025
 10
447.8986664798
 20
-227.2405471215
 10
450.1527582905
 20
-229.0864433631
 10
452.2206305815
 20
-231.0036164975
 10
454.0955383834
 20
-232.9858131044
 10
455.7713661365
 20
-235.0265676705
 10
457.242647639
 20
-237.1192236785
 10
458.5045838765
 20
-239.2569553196
 10
459.5530586752
 20
-241.4327897575
 10
460.3846521283
 20
-243.6396298724
 10
460.9966517509
 20
-245.8702774106
 10
461.3870613273
 20
-248.1174564634
 10
461.5546074226
 20
-250.3738372
 10
461.4987435364
 20
-252.6320597753
 10
461.2196518849
 20
-254.8847583367
 10
460.7182428073
 20
-257.1245850496
 10
459.9961517955
 20
-259.344234065
 10
459.0557341605
 20
-261.536465349
 10
457.9000573491
 20
-263.6941282989
 10
456.5328909388
 20
-265.8101850666
 10
454.9586943424
 20
-267.8777335147
 10
453.1826022618
 20
-269.8900297301
 10
451.2104079404
 20
-271.8405100206
 10
449.048544266
 20
-273.722812325
 10
446.7040627887
 20
-275.5307969643
 10
444.1846107196
 20
-277.2585666686
 10
441.4984059878
 20
-278.9004858122
 10
438.6542104347
 20
-280.451198796
 10
435.6613012352
 20
-281.9056475167
 10
432.5294406368
 20
-283.2590878648
 10
429.268844118
 20
-284.5071051992
 10
425.8901470668
 20
-285.6456287468
 10
422.4043700908
 20
-286.6709448804
 10
418.8228830699
 20
-287.579709232
 10
415.1573680703
 20
-288.368957601
 10
411.4197812402
 20
-289.0361156234
 10
407.6223138109
 20
-289.5790071683
 10
403.7773523317
 20
-289.9958614364
 10
399.897438268
 20
-290.2853187356
 10
395.9952270929
 20
-290.4464349166
 10
392.0834470081
 20
-290.4786844516
 10
388.1748574273
 20
-290.3819621496
 10
384.2822073573
 20
-290.1565834985
 10
380.4181938134
 20
-289.8032836366
 10
376.5954204048
 20
-289.3232149546
 10
372.8263562236
 20
-288.7179433369
 10
369.1232951739
 20
-287.9894430535
 10
365.4983158712
 20
-287.1400903211
 10
361.9632422443
 20
-286.1726555517
 10
358.5296049688
 20
-285.0902943164
 10
355.2086038557
 20
-283.8965370526
 10
352.0110713205
 20
-282.5952775484
 10
348.9474370495
 20
-281.1907602418
 10
346.027693981
 20
-279.6875663763
 10
343.2613657101
 20
-278.0905990579
 10
340.6574754245
 20
-276.405067262
 10
338.2245164732
 20
-274.636468843
 10
335.9704246625
 20
-272.7905726014
 10
333.9025523714
 20
-270.873399467
 10
332.0276445696
 20
-268.8912028601
 10
330.3518168165
 20
-266.850448294
 10
328.880535314
 20
-264.757792286
 10
327.6185990765
 20
-262.6200606449
 10
326.5701242778
 20
-260.444226207
 10
325.7385308246
 20
-258.2373860921
 10
325.1265312021
 20
-256.0067385539
 10
324.7361216257
 20
-253.7595595011
 10
324.5685755303
 20
-251.5031787645
 10
324.6244394166
 20
-249.2449561892
 10
324.903531068
 20
-246.9922576278
 10
325.4049401457
 20
-244.7524309149
 10
326.1270311575
 20
-242.5327818995
 10
327.0674487925
 20
-240.3405506155
 10
328.2231256039
 20
-238.1828876656
 10
329.5902920141
 20
-236.0668308979
 10
331.1644886106
 20
-233.9992824498
 10
332.9405806911
 20
-231.9869862344
 10
334.9127750126
 20
-230.0365059439
 10
337.074638687
 20
-228.1542036395
 10
339.4191201643
 20
-226.3462190002
 10
341.9385722334
 20
-224.6184492959
 10
344.6247769652
 20
-222.9765301523
  0
LWPOLYLINE
  5
113
330
1F
100
AcDbEntity
  8
0
  6
Continuous
 62
     7
370
    25
100
AcDbPolyline
 90
       99
 70
   128
 43
0.0
 10
354.1707185112
 20
-228.4872849071
 10
351.7588771946
 20
-229.9718681541
 10
349.5167575904
 20
-231.5426078214
 10
347.453573049
 20
-233.1930494029
 10
345.5778016382
 20
-234.9164108801
 10
343.8971513051
 20
-236.705610591
 10
342.4185282024
 20
-238.5532963303
 10
341.1480083095
 20
-240.4518755608
 10
340.0908124654
 20
-242.3935466134
 10
339.2512849143
 20
-244.3703307451
 10
338.6328754553
 20
-246.3741049259
 10
338.2381252653
 20
-248.3966352179
 10
338.0686564575
 20
-250.4296106104
 10
338.1251654157
 20
-252.4646771713
 10
338.4074199324
 20
-254.4934723757
 10
338.9142601632
 20
-256.5076594688
 10
339.643603393
 20
-258.4989617239
 10
340.5924525939
 20
-260.4591964529
 10
341.7569087411
 20
-262.3803086308
 10
343.1321868345
 20
-264.2544039955
 10
344.7126355614
 20
-266.0737814872
 10
346.4917605189
 20
-267.8309648937
 10
348.4622509011
 20
-269.5187335712
 10
350.6160095402
 20
-271.1301521164
 10
352.94418618
 20
-272.6585988647
 10
355.4372138434
 20
-274.0977931007
 10
358.0848481448
 20
-275.4418208664
 10
360.8762093871
 20
-276.6851592636
 10
363.7998272681
 20
-277.822699148
 10
366.8436880149
 20
-278.8497661242
 10
369.9952837508
 20
-279.7621397538
 10
373.2416638928
 20
-280.5560708978
 10
376.5694883686
 20
-281.2282971229
 10
379.9650824336
 20
-281.7760561072
 10
383.4144928634
 20
-282.1970969916
 10
386.9035452908
 20
-282.4896896289
 10
390.4179024508
 20
-282.6526316931
 10
393.9431230961
 20
-282.6852536202
 10
397.4647213389
 20
-282.5874213599
 10
400.9682261767
 20
-282.3595369259
 10
404.4392409564
 20
-282.0025367441
 10
407.863502534
 20
-281.517887805
 10
411.226939884
 20
-280.9075816349
 10
414.515731921
 20
-280.1741261128
 10
417.716364293
 20
-279.3205351648
 10
420.815684915
 20
-278.3503163791
 10
423.8009580139
 20
-277.267456593
 10
426.6599164621
 20
-276.0764055095
 10
429.3808121861
 20
-274.7820574129
 10
431.9524644417
 20
-273.3897310574
 10
434.3643057583
 20
-271.9051478104
 10
436.6064253625
 20
-270.3344081431
 10
438.669609904
 20
-268.6839665616
 10
440.5453813148
 20
-266.9606050844
 10
442.2260316479
 20
-265.1714053735
 10
443.7046547506
 20
-263.3237196342
 10
444.9751746434
 20
-261.4251404037
 10
446.0323704876
 20
-259.4834693511
 10
446.8718980386
 20
-257.5066852194
 10
447.4903074977
 20
-255.5029110386
 10
447.8850576877
 20
-253.4803807466
 10
448.0545264955
 20
-251.4474053541
 10
447.9980175373
 20
-249.4123387932
 10
447.7157630206
 20
-247.3835435888
 10
447.2089227898
 20
-245.3693564957
 10
446.47957956
 20
-243.3780542406
 10
445.5307303591
 20
-241.4178195116
 10
444.3662742119
 20
-239.4967073337
 10
442.9909961185
 20
-237.622611969
 10
441.4105473916
 20
-235.8032344773
 10
439.631422434
 20
-234.0460510708
 10
437.6609320519
 20
-232.3582823933
 10
435.5071734128
 20
-230.7468638481
 10
433.178996773
 20
-229.2184170998
 10
430.6859691096
 20
-227.7792228638
 10
428.0383348082
 20
-226.4351950981
 10
425.2469735659
 20
-225.191856701
 10
422.3233556848
 20
-224.0543168166
 10
419.279494938
 20
-223.0272498403
 10
416.1278992022
 20
-222.1148762107
 10
412.8815190602
 20
-221.3209450667
 10
409.5536945844
 20
-220.6487188416
 10
406.1581005194
 20
-220.1009598573
 10
402.7086900895
 20
-219.6799189729
 10
399.2196376622
 20
-219.3873263356
 10
395.7052805021
 20
-219.2243842714
 10
392.1800598568
 20
-219.1917623443
 10
388.658461614
 20
-219.2895946046
 10
385.1549567763
 20
-219.5174790386
 10
381.6839419965
 20
-219.8744792204
 10
378.259680419
 20
-220.3591281595
 10
374.896243069
 20
-220.9694343296
 10
371.607451032
 20
-221.7028898517
 10
368.40681866
 20
-222.5564807997
 10
365.307498038
 20
-223.5266995854
 10
362.3222249391
 20
-224.6095593715
 10
359.4632664909
 20
-225.800610455
 10
356.7423707669
 20
-227.0949585516
 10
354.1707185112
 20
-228.4872849071
  0
SPLINE
  5
114
330
1F
100
AcDbEntity
  8
0
  6
Continuous
 62
     7
370
    25
100
AcDbSpline
210
0.0
220
0.0
230
1.0
 70
     8
 71
     3
 72
    15
 73
    11
 74
     0
 42
0.00000001
 43
0.00000001
 40
0.0
 40
0.0
 40
0.0
 40
0.0
 40
0.142670334803958
 40
0.285322832544495
 40
0.4284391205575694
 40
0.5718683136724507
 40
0.7147900780393744
 40
0.8571754170774204
 40
0.9998322460802269
 40
1.0
 40
1.0
 40
1.0
 40
1.0
 10
344.6247769652083
 20
-220.5269077166673
 30
0.0
 10
345.1854844240989
 20
-220.1469456300596
 30
0.0
 10
346.3068292405903
 20
-219.3870689608179
 30
0.0
 10
347.8645163463605
 20
-217.6004399538888
 30
0.0
 10
349.0817577912574
 20
-215.5542697371472
 30
0.0
 10
349.7917790115771
 20
-213.4127143347432
 30
0.0
 10
349.9035003511441
 20
-211.3957399513624
 30
0.0
 10
349.3534539362437
 20
-209.8356609574591
 30
0.0
 10
348.7283678264011
 20
-208.9464397046709
 30
0.0
 10
348.2514677873262
 20
-208.8224367526033
 30
0.0
 10
348.2509076467029
 20
-208.8222911055386
 30
0.0
  0
SPLINE
  5
115
330
1F
100
AcDbEntity
  8
0
  6
Continuous
 62
     7
370
    25
100
AcDbSpline
210
0.0
220
0.0
230
1.0
 70
     8
 71
     3
 72
    10
 73
     6
 74
     0
 42
0.00000001
 43
0.00000001
 40
0.0
 40
0.0
 40
0.0
 40
0.0
 40
0.2874950139365547
 40
0.7173834921886537
 40
1.0
 40
1.0
 40
1.0
 40
1.0
 10
341.2935058849691
 20
-220.869558428898
 30
0.0
 10
341.5382545897269
 20
-221.0103017014652
 30
0.0
 10
342.1489736353327
 20
-221.3614970108856
 30
0.0
 10
343.3514908483144
 20
-221.1677016977787
 30
0.0
 10
344.2631611444103
 20
-220.7088944974604
 30
0.0
 10
344.6247769652083
 20
-220.5269077166673
 30
0.0
  0
LWPOLYLINE
  5
116
330
1F
100
AcDbEntity
  8
0
  6
Continuous
 62
     7
370
    25
100
AcDbPolyline
 90
       36
 70
   128
 43
0.0
 10
416.7496686462
 20
-58.0441770556
 10
416.8292131244
 20
-56.9776640629
 10
417.0652899339
 20
-55.8535895757
 10
417.4503113717
 20
-54.7080822729
 10
417.9719025322
 20
-53.5779597018
 10
418.6132990463
 20
-52.4995449316
 10
419.3538859022
 20
-51.5074991005
 10
420.169860029
 20
-50.6337073776
 10
421.0349953469
 20
-49.906254148
 10
421.921485695
 20
-49.3485203569
 10
422.800838544
 20
-48.9784320273
 10
423.64479077
 20
-48.8078841026
 10
424.4262170538
 20
-48.8423581335
 10
425.1200017118
 20
-49.0807460963
 10
425.7038459343
 20
-49.5153860056
 10
426.1589844875
 20
-50.1323081771
 10
426.4707888438
 20
-50.9116842248
 10
426.6292373547
 20
-51.828464361
 10
426.6292373547
 20
-52.853182518
 10
426.4707888438
 20
-53.952903411
 10
426.1589844875
 20
-55.0922811056
 10
425.7038459343
 20
-56.2346950653
 10
425.1200017118
 20
-57.3434271654
 10
424.4262170538
 20
-58.3828418439
 10
423.64479077
 20
-59.3195314579
 10
422.800838544
 20
-60.1233900325
 10
421.921485695
 20
-60.7685808916
 10
421.0349953469
 20
-61.2343670701
 10
420.169860029
 20
-61.5057778171
 10
419.3538859022
 20
-61.5740897679
 10
418.6132990463
 20
-61.43710732
 10
417.9719025322
 20
-61.0992332021
 10
417.4503113717
 20
-60.5713269664
 10
417.0652899339
 20
-59.8703559535
 10
416.8292131244
 20
-59.0188499488
 10
416.7496686462
 20
-58.0441770556
  0
LWPOLYLINE
  5
117
330
1F
100
AcDbEntity
  8
0
  6
Continuous
 62
     7
370
    25
100
AcDbPolyline
 90
       30
 70
   128
 43
0.0
 10
418.1638822086
 20
-57.2277689438
 10
418.2465410266
 20
-56.302390335
 10
418.4906524461
 20
-55.3248455616
 10
418.8848020885
 20
-54.3408435307
 10
419.4105599545
 20
-53.3963950838
 10
420.0433421906
 20
-52.5356615804
 10
420.7535606029
 20
-51.7988899626
 10
421.5080061676
 20
-51.2205308524
 10
422.2714018487
 20
-50.8276276789
 10
423.0080521126
 20
-50.6385521578
 10
423.6835120117
 20
-50.6621452505
 10
424.2661977918
 20
-50.89730377
 10
424.7288637134
 20
-51.3330319655
 10
425.0498760323
 20
-51.9489556706
 10
425.2142245692
 20
-52.7162749776
 10
425.2142245692
 20
-53.5991108884
 10
425.0498760323
 20
-54.5561829771
 10
424.7288637134
 20
-55.5427396166
 10
424.2661977918
 20
-56.5126505147
 10
423.6835120117
 20
-57.4205637159
 10
423.0080521126
 20
-58.2240262081
 10
422.2714018487
 20
-58.8854689779
 10
421.5080061676
 20
-59.3739636968
 10
420.7535606029
 20
-59.6666688945
 10
420.0433421906
 20
-59.7498980012
 10
419.4105599545
 20
-59.6197593166
 10
418.8848020885
 20
-59.2823379808
 10
418.4906524461
 20
-58.7534114405
 10
418.2465410266
 20
-58.0577117128
 10
418.1638822086
 20
-57.2277689438
  0
LWPOLYLINE
  5
118
330
1F
100
AcDbEntity
  8
0
  6
Continuous
 62
     7
370
    25
100
AcDbPolyline
 90
       36
 70
   128
 43
0.0
 10
328.3613209979
 20
-211.1372855303
 10
328.4408654761
 20
-210.0707725375
 10
328.6769422855
 20
-208.9466980503
 10
329.0619637234
 20
-207.8011907475
 10
329.5835548839
 20
-206.6710681764
 10
330.224951398
 20
-205.5926534063
 10
330.9655382538
 20
-204.6006075751
 10
331.7815123807
 20
-203.7268158523
 10
332.6466476986
 20
-202.9993626226
 10
333.5331380467
 20
-202.4416288315
 10
334.4124908957
 20
-202.0715405019
 10
335.2564431216
 20
-201.9009925773
 10
336.0378694055
 20
-201.9354666082
 10
336.7316540635
 20
-202.1738545709
 10
337.3154982859
 20
-202.6084944802
 10
337.7706368391
 20
-203.2254166518
 10
338.0824411955
 20
-204.0047926994
 10
338.2408897064
 20
-204.9215728357
 10
338.2408897064
 20
-205.9462909926
 10
338.0824411955
 20
-207.0460118856
 10
337.7706368391
 20
-208.1853895802
 10
337.3154982859
 20
-209.3278035399
 10
336.7316540635
 20
-210.43653564
 10
336.0378694055
 20
-211.4759503186
 10
335.2564431216
 20
-212.4126399326
 10
334.4124908957
 20
-213.2164985071
 10
333.5331380467
 20
-213.8616893662
 10
332.6466476986
 20
-214.3274755448
 10
331.7815123807
 20
-214.5988862918
 10
330.9655382538
 20
-214.6671982425
 10
330.224951398
 20
-214.5302157946
 10
329.5835548839
 20
-214.1923416767
 10
329.0619637234
 20
-213.664435441
 10
328.6769422855
 20
-212.9634644282
 10
328.4408654761
 20
-212.1119584234
 10
328.3613209979
 20
-211.1372855303
  0
LWPOLYLINE
  5
119
330
1F
100
AcDbEntity
  8
0
  6
Continuous
 62
     7
370
    25
100
AcDbPolyline
 90
       30
 70
   128
 43
0.0
 10
329.7755345603
 20
-210.3208774184
 10
329.8581933783
 20
-209.3954988096
 10
330.1023047978
 20
-208.4179540362
 10
330.4964544401
 20
-207.4339520054
 10
331.0222123061
 20
-206.4895035584
 10
331.6549945423
 20
-205.6287700551
 10
332.3652129546
 20
-204.8919984373
 10
333.1196585193
 20
-204.313639327
 10
333.8830542004
 20
-203.9207361535
 10
334.6197044643
 20
-203.7316606325
 10
335.2951643634
 20
-203.7552537251
 10
335.8778501435
 20
-203.9904122447
 10
336.3405160651
 20
-204.4261404401
 10
336.661528384
 20
-205.0420641452
 10
336.8258769209
 20
-205.8093834522
 10
336.8258769209
 20
-206.6922193631
 10
336.661528384
 20
-207.6492914518
 10
336.3405160651
 20
-208.6358480912
 10
335.8778501435
 20
-209.6057589893
 10
335.2951643634
 20
-210.5136721906
 10
334.6197044643
 20
-211.3171346827
 10
333.8830542004
 20
-211.9785774526
 10
333.1196585193
 20
-212.4670721714
 10
332.3652129546
 20
-212.7597773691
 10
331.6549945423
 20
-212.8430064759
 10
331.0222123061
 20
-212.7128677912
 10
330.4964544401
 20
-212.3754464554
 10
330.1023047978
 20
-211.8465199151
 10
329.8581933783
 20
-211.1508201874
 10
329.7755345603
 20
-210.3208774184
  0
LWPOLYLINE
  5
11A
330
1F
100
AcDbEntity
  8
0
  6
Continuous
 62
     1
370
    25
100
AcDbPolyline
 90
       43
 70
   128
 43
0.0
 10
394.1222516483
 20
-84.169236634
 10
394.2012470589
 20
-87.4079907759
 10
394.4379756241
 20
-90.7273869347
 10
394.8316651846
 20
-94.11659793
 10
395.3810316068
 20
-97.5645688601
 10
396.0842829717
 20
-101.0600531605
 10
396.9391254194
 20
-104.5916492879
 10
397.9427706317
 20
-108.1478379097
 10
399.0919449263
 20
-111.717019478
 10
400.3828999357
 20
-115.2875520642
 10
401.8114248328
 20
-118.8477893331
 10
403.3728600665
 20
-122.3861185309
 10
405.0621125596
 20
-125.8909983632
 10
406.8736723214
 20
-129.3509966404
 10
408.8016304206
 20
-132.7548275673
 10
410.8396982587
 20
-136.0913885549
 10
412.9812280819
 20
-139.3497964348
 10
415.2192346651
 20
-142.5194229577
 10
417.546418096
 20
-145.5899294608
 10
419.955187586
 20
-148.5513005901
 10
422.4376862296
 20
-151.3938769684
 10
424.9858166322
 20
-154.1083867024
 10
427.5912673222
 20
-156.6859756257
 10
430.2455398608
 20
-159.1182361789
 10
432.9399765629
 20
-161.3972348335
 10
435.6657887359
 20
-163.5155379698
 10
438.4140853471
 20
-165.4662361232
 10
441.1759020241
 20
-167.2429665217
 10
443.942230295
 20
-168.8399338401
 10
446.704046972
 20
-170.251929103
 10
449.4523435832
 20
-171.4743466752
 10
452.1781557562
 20
-172.5031992847
 10
454.8725924582
 20
-173.3351310282
 10
457.5268649969
 20
-173.9674283173
 10
460.1323156869
 20
-174.3980287295
 10
462.6804460895
 20
-174.6255277359
 10
465.1629447331
 20
-174.649183282
 10
467.571714223
 20
-174.4689182084
 10
469.8988976539
 20
-174.0853205021
 10
472.1369042372
 20
-173.4996413793
 10
474.2784340604
 20
-172.7137912034
 10
476.3165018984
 20
-171.7303332544
 10
476.8062827523
 20
-171.455561537
  0
LWPOLYLINE
  5
11B
330
1F
100
AcDbEntity
  8
0
  6
Continuous
 62
     1
370
    25
100
AcDbPolyline
 90
       15
 70
   128
 43
0.0
 10
408.3118495668
 20
-52.8068673908
 10
406.8736723214
 20
-53.70995356
 10
405.0621125596
 20
-55.0783694567
 10
403.3728600665
 20
-56.6328798753
 10
401.8114248328
 20
-58.3684143259
 10
400.3828999357
 20
-60.2793118558
 10
399.0919449263
 20
-62.3593395144
 10
397.9427706317
 20
-64.601712684
 10
396.9391254194
 20
-66.9991172092
 10
396.0842829717
 20
-69.5437332549
 10
395.3810316068
 20
-72.2272608124
 10
394.8316651846
 20
-75.0409467725
 10
394.4379756241
 20
-77.9756134766
 10
394.2012470589
 20
-81.0216886518
 10
394.1222516483
 20
-84.169236634
  0
LWPOLYLINE
  5
11C
330
1F
100
AcDbEntity
  8
0
  6
Continuous
 62
     1
370
    25
100
AcDbPolyline
 90
       43
 70
   128
 43
0.0
 10
344.6247769652
 20
-169.9013773798
 10
347.4689725183
 20
-168.3506643959
 10
350.4618817178
 20
-166.8962156753
 10
353.5937423162
 20
-165.5427753272
 10
356.854338835
 20
-164.2947579927
 10
360.2330358862
 20
-163.1562344451
 10
363.7188128622
 20
-162.1309183115
 10
367.3002998831
 20
-161.22215396
 10
370.9658148826
 20
-160.4329055909
 10
374.7034017128
 20
-159.7657475686
 10
378.5008691421
 20
-159.2228560237
 10
382.3458306212
 20
-158.8060017556
 10
386.225744685
 20
-158.5165444563
 10
390.1279558601
 20
-158.3554282754
 10
394.0397359448
 20
-158.3231787403
 10
397.9483255256
 20
-158.4199010423
 10
401.8409755957
 20
-158.6452796935
 10
405.7049891395
 20
-158.9985795554
 10
409.5277625482
 20
-159.4786482373
 10
413.2968267293
 20
-160.0839198551
 10
416.999887779
 20
-160.8124201384
 10
420.6248670818
 20
-161.6617728708
 10
424.1599407086
 20
-162.6292076402
 10
427.5935779842
 20
-163.7115688755
 10
430.9145790972
 20
-164.9053261393
 10
434.1121116325
 20
-166.2065856435
 10
437.1757459035
 20
-167.6111029502
 10
440.095488972
 20
-169.1142968156
 10
442.8618172429
 20
-170.7112641341
 10
445.4657075285
 20
-172.3967959299
 10
447.8986664798
 20
-174.1653943489
 10
450.1527582905
 20
-176.0112905905
 10
452.2206305815
 20
-177.9284637249
 10
454.0955383834
 20
-179.9106603318
 10
455.7713661365
 20
-181.9514148979
 10
457.242647639
 20
-184.044070906
 10
458.5045838765
 20
-186.181802547
 10
459.5530586752
 20
-188.3576369849
 10
460.3846521283
 20
-190.5644770998
 10
460.9966517509
 20
-192.795124638
 10
461.3870613273
 20
-195.0423036909
 10
461.5546074226
 20
-197.2986844275
 10
461.5615914765
 20
-197.8633552097
  0
LWPOLYLINE
  5
11D
330
1F
100
AcDbEntity
  8
0
  6
Continuous
 62
     1
370
    25
100
AcDbPolyline
 90
       15
 70
   128
 43
0.0
 10
324.5615914765
 20
-197.8633552097
 10
324.6244394166
 20
-196.1698034166
 10
324.903531068
 20
-193.9171048552
 10
325.4049401457
 20
-191.6772781423
 10
326.1270311575
 20
-189.457629127
 10
327.0674487925
 20
-187.2653978429
 10
328.2231256039
 20
-185.1077348931
 10
329.5902920141
 20
-182.9916781254
 10
331.1644886106
 20
-180.9241296772
 10
332.9405806911
 20
-178.9118334619
 10
334.9127750126
 20
-176.9613531714
 10
337.074638687
 20
-175.079050867
 10
339.4191201643
 20
-173.2710662276
 10
341.9385722334
 20
-171.5432965233
 10
344.6247769652
 20
-169.9013773798
  0
ARC
  5
11E
330
1F
100
AcDbEntity
  8
0
  6
Continuous
 62
     1
370
    25
100
AcDbCircle
 10
393.0213445176
 20
-140.7287324525
 30
0.0
 40
89.01916095780373
100
AcDbArc
 50
10.1568564409
 51
49.8377670264
  0
ARC
  5
11F
330
1F
100
AcDbEntity
  8
0
  6
Continuous
 62
     1
370
    25
100
AcDbCircle
 10
393.0615914765
 20
-140.6386444527
 30
0.0
 40
89.03894627931167
100
AcDbArc
 50
250.175802674
 51
289.824197326
  0
ENDSEC
  0
SECTION
  2
OBJECTS
  0
DICTIONARY
  5
C
330
0
100
AcDbDictionary
281
     1
  3
ACAD_GROUP
350
D
  3
ACAD_LAYOUT
350
1A
  3
ACAD_MLINESTYLE
350
17
  3
ACAD_PLOTSETTINGS
350
19
  3
ACAD_PLOTSTYLENAME
350
E
  3
ACAD_SCALELIST
350
47
  3
DWGPROPS
350
120
  0
DICTIONARY
  5
D
102
{ACAD_REACTORS
330
C
102
}
330
C
100
AcDbDictionary
281
     1
  0
DICTIONARY
  5
1A
102
{ACAD_REACTORS
330
C
102
}
330
C
100
AcDbDictionary
281
     1
  3
Layout1
350
1E
  3
Layout2
350
26
  3
Model
350
22
  0
DICTIONARY
  5
17
102
{ACAD_REACTORS
330
C
102
}
330
C
100
AcDbDictionary
281
     1
  3
Standard
350
18
  0
DICTIONARY
  5
19
102
{ACAD_REACTORS
330
C
102
}
330
C
100
AcDbDictionary
281
     1
  0
ACDBDICTIONARYWDFLT
  5
E
102
{ACAD_REACTORS
330
C
102
}
330
C
100
AcDbDictionary
281
     1
  3
Normal
350
F
100
AcDbDictionaryWithDefault
340
F
  0
DICTIONARY
  5
47
102
{ACAD_REACTORS
330
C
102
}
330
C
100
AcDbDictionary
281
     1
  3
A0
350
48
  3
A1
350
49
  3
A2
350
4A
  3
A3
350
4B
  3
A4
350
4C
  3
A5
350
4D
  3
A6
350
4E
  3
A7
350
4F
  3
A8
350
50
  3
A9
350
51
  3
B0
350
52
  3
B1
350
53
  3
B2
350
54
  3
B3
350
55
  3
B4
350
56
  3
B5
350
57
  3
B6
350
58
  3
B7
350
59
  3
B8
350
5A
  3
B9
350
5B
  3
C0
350
5C
  3
C1
350
5D
  3
C2
350
5E
  3
C3
350
5F
  3
C4
350
60
  3
C5
350
61
  3
C6
350
62
  3
C7
350
63
  3
C8
350
64
  3
C9
350
65
  3
D0
350
66
  3
D1
350
67
  3
D2
350
68
  0
XRECORD
  5
120
102
{ACAD_REACTORS
330
C
102
}
330
C
100
AcDbXrecord
280
     1
  1
DWGPROPS COOKIE
  2

  3

  4

  6

  7

  8
b.kav
  9

300
=
301
=
302
=
303
=
304
=
305
=
306
=
307
=
308
=
309
=
 40
0.0
 41
2459741.479572291
 42
2459741.479572477
  1

 90
        0
  0
LAYOUT
  5
1E
102
{ACAD_REACTORS
330
1A
102
}
330
1A
100
AcDbPlotSettings
  1

  2
none_device
  4

  6

 40
0.0
 41
0.0
 42
0.0
 43
0.0
 44
0.0
 45
0.0
 46
0.0
 47
0.0
 48
0.0
 49
0.0
140
0.0
141
0.0
142
1.0
143
1.0
 70
   688
 72
     1
 73
     0
 74
     5
  7

 75
    16
147
1.0
148
0.0
149
0.0
100
AcDbLayout
  1
Layout1
 70
     1
 71
     1
 10
0.0
 20
0.0
 11
420.0
 21
297.0
 12
0.0
 22
0.0
 32
0.0
 14
1.0000000000E+20
 24
1.0000000000E+20
 34
1.0000000000E+20
 15
-1.0000000000E+20
 25
-1.0000000000E+20
 35
-1.0000000000E+20
146
0.0
 13
0.0
 23
0.0
 33
0.0
 16
1.0
 26
0.0
 36
0.0
 17
0.0
 27
1.0
 37
0.0
 76
     0
330
1B
  0
LAYOUT
  5
26
102
{ACAD_REACTORS
330
1A
102
}
330
1A
100
AcDbPlotSettings
  1

  2
none_device
  4

  6

 40
0.0
 41
0.0
 42
0.0
 43
0.0
 44
0.0
 45
0.0
 46
0.0
 47
0.0
 48
0.0
 49
0.0
140
0.0
141
0.0
142
1.0
143
1.0
 70
   688
 72
     1
 73
     0
 74
     5
  7

 75
    16
147
1.0
148
0.0
149
0.0
100
AcDbLayout
  1
Layout2
 70
     1
 71
     2
 10
0.0
 20
0.0
 11
0.0
 21
0.0
 12
0.0
 22
0.0
 32
0.0
 14
0.0
 24
0.0
 34
0.0
 15
0.0
 25
0.0
 35
0.0
146
0.0
 13
0.0
 23
0.0
 33
0.0
 16
1.0
 26
0.0
 36
0.0
 17
0.0
 27
1.0
 37
0.0
 76
     0
330
23
  0
LAYOUT
  5
22
102
{ACAD_REACTORS
330
1A
102
}
330
1A
100
AcDbPlotSettings
  1

  2
none_device
  4
Letter_(8.50_x_11.00_Inches)
  6

 40
6.35
 41
6.35
 42
6.35000508
 43
6.35000508
 44
215.9
 45
279.4
 46
0.0
 47
0.0
 48
0.0
 49
0.0
140
0.0
141
0.0
142
1.0
143
1.0
 70
  1712
 72
     1
 73
     0
 74
     0
  7

 75
     0
147
1.0
148
0.0
149
0.0
100
AcDbLayout
  1
Model
 70
     1
 71
     0
 10
0.0
 20
0.0
 11
279.4
 21
215.9
 12
0.0
 22
0.0
 32
0.0
 14
0.0
 24
0.0
 34
0.0
 15
279.4
 25
215.9
 35
0.0
146
0.0
 13
0.0
 23
0.0
 33
0.0
 16
1.0
 26
0.0
 36
0.0
 17
0.0
 27
1.0
 37
0.0
 76
     0
330
1F
331
29
  0
MLINESTYLE
  5
18
102
{ACAD_REACTORS
330
17
102
}
330
17
100
AcDbMlineStyle
  2
Standard
 70
     0
  3

 62
   256
 51
90.0
 52
90.0
 71
     2
 49
0.5
 62
   256
  6
BYLAYER
 49
-0.5
 62
   256
  6
BYLAYER
  0
ACDBPLACEHOLDER
  5
F
102
{ACAD_REACTORS
330
E
102
}
330
E
  0
SCALE
  5
48
102
{ACAD_REACTORS
330
47
102
}
330
47
100
AcDbScale
 70
     0
300
1:1
140
1.0
141
1.0
290
     1
  0
SCALE
  5
49
102
{ACAD_REACTORS
330
47
102
}
330
47
100
AcDbScale
 70
     0
300
1:2
140
1.0
141
2.0
290
     0
  0
SCALE
  5
4A
102
{ACAD_REACTORS
330
47
102
}
330
47
100
AcDbScale
 70
     0
300
1:4
140
1.0
141
4.0
290
     0
  0
SCALE
  5
4B
102
{ACAD_REACTORS
330
47
102
}
330
47
100
AcDbScale
 70
     0
300
1:5
140
1.0
141
5.0
290
     0
  0
SCALE
  5
4C
102
{ACAD_REACTORS
330
47
102
}
330
47
100
AcDbScale
 70
     0
300
1:8
140
1.0
141
8.0
290
     0
  0
SCALE
  5
4D
102
{ACAD_REACTORS
330
47
102
}
330
47
100
AcDbScale
 70
     0
300
1:10
140
1.0
141
10.0
290
     0
  0
SCALE
  5
4E
102
{ACAD_REACTORS
330
47
102
}
330
47
100
AcDbScale
 70
     0
300
1:16
140
1.0
141
16.0
290
     0
  0
SCALE
  5
4F
102
{ACAD_REACTORS
330
47
102
}
330
47
100
AcDbScale
 70
     0
300
1:20
140
1.0
141
20.0
290
     0
  0
SCALE
  5
50
102
{ACAD_REACTORS
330
47
102
}
330
47
100
AcDbScale
 70
     0
300
1:30
140
1.0
141
30.0
290
     0
  0
SCALE
  5
51
102
{ACAD_REACTORS
330
47
102
}
330
47
100
AcDbScale
 70
     0
300
1:40
140
1.0
141
40.0
290
     0
  0
SCALE
  5
52
102
{ACAD_REACTORS
330
47
102
}
330
47
100
AcDbScale
 70
     0
300
1:50
140
1.0
141
50.0
290
     0
  0
SCALE
  5
53
102
{ACAD_REACTORS
330
47
102
}
330
47
100
AcDbScale
 70
     0
300
1:100
140
1.0
141
100.0
290
     0
  0
SCALE
  5
54
102
{ACAD_REACTORS
330
47
102
}
330
47
100
AcDbScale
 70
     0
300
2:1
140
2.0
141
1.0
290
     0
  0
SCALE
  5
55
102
{ACAD_REACTORS
330
47
102
}
330
47
100
AcDbScale
 70
     0
300
4:1
140
4.0
141
1.0
290
     0
  0
SCALE
  5
56
102
{ACAD_REACTORS
330
47
102
}
330
47
100
AcDbScale
 70
     0
300
8:1
140
8.0
141
1.0
290
     0
  0
SCALE
  5
57
102
{ACAD_REACTORS
330
47
102
}
330
47
100
AcDbScale
 70
     0
300
10:1
140
10.0
141
1.0
290
     0
  0
SCALE
  5
58
102
{ACAD_REACTORS
330
47
102
}
330
47
100
AcDbScale
 70
     0
300
100:1
140
100.0
141
1.0
290
     0
  0
SCALE
  5
59
102
{ACAD_REACTORS
330
47
102
}
330
47
100
AcDbScale
 70
     0
300
1/128" = 1'-0"
140
0.0078125
141
12.0
290
     0
  0
SCALE
  5
5A
102
{ACAD_REACTORS
330
47
102
}
330
47
100
AcDbScale
 70
     0
300
1/64" = 1'-0"
140
0.015625
141
12.0
290
     0
  0
SCALE
  5
5B
102
{ACAD_REACTORS
330
47
102
}
330
47
100
AcDbScale
 70
     0
300
1/32" = 1'-0"
140
0.03125
141
12.0
290
     0
  0
SCALE
  5
5C
102
{ACAD_REACTORS
330
47
102
}
330
47
100
AcDbScale
 70
     0
300
1/16" = 1'-0"
140
0.0625
141
12.0
290
     0
  0
SCALE
  5
5D
102
{ACAD_REACTORS
330
47
102
}
330
47
100
AcDbScale
 70
     0
300
3/32" = 1'-0"
140
0.09375
141
12.0
290
     0
  0
SCALE
  5
5E
102
{ACAD_REACTORS
330
47
102
}
330
47
100
AcDbScale
 70
     0
300
1/8" = 1'-0"
140
0.125
141
12.0
290
     0
  0
SCALE
  5
5F
102
{ACAD_REACTORS
330
47
102
}
330
47
100
AcDbScale
 70
     0
300
3/16" = 1'-0"
140
0.1875
141
12.0
290
     0
  0
SCALE
  5
60
102
{ACAD_REACTORS
330
47
102
}
330
47
100
AcDbScale
 70
     0
300
1/4" = 1'-0"
140
0.25
141
12.0
290
     0
  0
SCALE
  5
61
102
{ACAD_REACTORS
330
47
102
}
330
47
100
AcDbScale
 70
     0
300
3/8" = 1'-0"
140
0.375
141
12.0
290
     0
  0
SCALE
  5
62
102
{ACAD_REACTORS
330
47
102
}
330
47
100
AcDbScale
 70
     0
300
1/2" = 1'-0"
140
0.5
141
12.0
290
     0
  0
SCALE
  5
63
102
{ACAD_REACTORS
330
47
102
}
330
47
100
AcDbScale
 70
     0
300
3/4" = 1'-0"
140
0.75
141
12.0
290
     0
  0
SCALE
  5
64
102
{ACAD_REACTORS
330
47
102
}
330
47
100
AcDbScale
 70
     0
300
1" = 1'-0"
140
1.0
141
12.0
290
     0
  0
SCALE
  5
65
102
{ACAD_REACTORS
330
47
102
}
330
47
100
AcDbScale
 70
     0
300
1-1/2" = 1'-0"
140
1.5
141
12.0
290
     0
  0
SCALE
  5
66
102
{ACAD_REACTORS
330
47
102
}
330
47
100
AcDbScale
 70
     0
300
3" = 1'-0"
140
3.0
141
12.0
290
     0
  0
SCALE
  5
67
102
{ACAD_REACTORS
330
47
102
}
330
47
100
AcDbScale
 70
     0
300
6" = 1'-0"
140
6.0
141
12.0
290
     0
  0
SCALE
  5
68
102
{ACAD_REACTORS
330
47
102
}
330
47
100
AcDbScale
 70
     0
300
1'-0" = 1'-0"
140
12.0
141
12.0
290
     0
  0
ENDSEC
  0
EOF
